Talking To The Moon

Bruno Mars

Composição de: Albert Winkler / Ari Levine / Bruno Mars / Jeff Bhasker / Philip Lawrence
tom: C#m
[Primeira Parte]

[TAB - Primeira Parte]

Parte 1 de 2
    E                 G#7
E|--0---0---0---0--------------------------|
B|--0---0---0---0------4---4---4---4-------|
G|----1---1---1---1----5---5---5---5-------|
D|-----------------------4---4---4---4-----|
A|-----------------------------------------|
E|--0------------------4-------------------|

Parte 2 de 2
    C#m      B         A
E|-----------------------------------------|
B|--5---5----4---4-----2---2---2---2-------|
G|--6---6----4---4-----2---2---2---2-------|
D|----6---6----4---4-----2---2---2---2-----|
A|--4--------2---------0-------------------|
E|-----------------------------------------|

E
  I know you're somewhere out there
 G#7
Somewhere far away
   C#m          B
I want you back
   A
I want you back

E
  My neighbors think I'm crazy
      G#7
But they don't understand
       C#m        B
You're all I have
       A
You're all I have


[Pré-Refrão]

[TAB - Pré-Refrão]

Parte 1 de 2
    F#m                B
E|-----------------------------------------|
B|--2---2---2---2------4---4---4---4-------|
G|--2---2---2---2------4---4---4---4-------|
D|----4---4---4---4------4---4---4---4-----|
A|---------------------2-------------------|
E|--2--------------------------------------|

Parte 2 de 2
    F#m                B
E|-----------------------------------------|
B|--2---2---2---2------4-------------------|
G|--2---2---2---2------4-------------------|
D|----4---4---4---4----4-------------------|
A|---------------------2-------------------|
E|--2--------------------------------------|

F#m                     B                F#m
    At night when the stars light up my room
            B
I sit by myself

[Refrão]

                A   B  C#m
Talking to the moon
               A  B  C#m
Try to get to you
    A                  B
In hopes you're on the other side
 E       B/D#  C#m   B       A
Talking to me too or am I a fool
           B
Who sits alone
                C#m  B  F#7
Talking to the moon

[Segunda Parte]

E
  I'm feeling like I'm famous
     G#7
The talk of the town
      C#m              B
They say I've gone mad
      A
Yeah, I've gone mad
E
  But they don't know what I know
        G#7
Cause when the sun goes down
           C#m        B
Someone's talking back
               A
Yeah, they're talking back

[Pré-Refrão]

F#m                     B                F#m
    At night when the stars light up my room
            B
I sit by myself

[Refrão]

                A   B  C#m
Talking to the moon
               A  B  C#m
Try to get to you
    A                  B
In hopes you're on the other side
 E       B/D#  C#m   B       A
Talking to me too or am I a fool
           B
Who sits alone
                F#m
Talking to the moon

[Terceira Parte]

         E
Aaaaaa...  aaaaaa
F#m            B4                  B
    Aaaaaa... do you ever hear me calling?
F#m          E
    Aaaaaa...  aaaaaa
F#m
    Aaaaaa

[Refrão Final]

      B                               A   B  C#m
Cause every night I'm talking to the moon
                        A  B  C#m
Still trying to get to you
    A                  B
In hopes you're on the other side
 E       B/D#  C#m   B       A
Talking to me too or am I a fool
           B
Who sits alone
                C#m  B  F#7
Talking to the moon

[Final]

E
  I know you're somewhere out there
 G#7
Somewhere far away
Página 1 / 1

Letras e título
Acordes e artista

resetar configurações
OK