Cifra Club

Talking To The Moon

Bruno Mars

Tab de baixo: Principal
Primeira parte:
G|-------------------
D|-------------------
A|----------4--2----0
E|0----4-------------

Pré-Refrão:
G|----------------
D|----------------
A|-----2---------2
E|2---------2-----

Primeiro Refrão:
G|------------------------------------------------------
D|------------------------------2-----------------------
A|0--2--4----0--2----4----0--2----2--4-2-0--2----4--2---
E|-----------------------------------------------------2

Segunda parte:
G|-------------------
D|-------------------
A|----------4--2----0
E|0----4-------------

Pré-Refrão:
G|----------------
D|----------------
A|-----2---------2
E|2---------2-----

Segundo Refrão:
G|-----------------------------------------------------
D|--------------------------------------2--------------
A|0--2--4-4-6-7-2-0--2--4-4-6-7-2-0--2----2--4-2-0--2--
E|-----------------------------------------------------

Terceira Parte:
G|-------------------------
D|4--2--4--2-----4--2--4---
A|-----------2------------2
E|-------------------------

Terceiro Refrão:
G|--------------------------------------------------------------
D|--------------------------------------2-----------------------
A|0--2--4-4-6-7-2-0--2--4-4-6-7-2-0--2----2--4-2-0--2----4--2---
E|-------------------------------------------------------------2

Final:
G|-------------------
D|-------------------
A|-------------------
E|0----4-------------
00:00 / 00:00
Outros vídeos desta música
Repetir
Outros vídeos desta música
Composição de Albert Winkler / Ari Levine / Bruno Mars / Jeff Bhasker / Philip Lawrence
Colaboração e revisão:
  • Filipe Lima
  • Luciano Monteiro
6.392 exibições

0 comentários

Ver todos os comentários

Conseguiu tocar?

3 Tocaram 0 Ainda não

Grave um vídeo tocando Talking To The Moon e nos envie!

00:00 / 00:00

Cifra Club Pro

Aproveite o Cifra Club com benefícios exclusivos e sem anúncios
Cifra Club Pro
Aproveite o Cifra Club com benefícios exclusivos e sem anúncios
OK