Cifra Club

Aprenda

Leave My Girl Alone

Buddy Guy

Cifra: Principal (violão e guitarra)
tom: A#
Intro
|----9--9--9----9--9--9----9-9s6-(6)----|
|-9h11-11-11-9h11-11-11-9h11-9s6-(6)----|
|---------------------------------------|
|---------------------------------------|
|---------------------------------------|
|---------------------------------------|

|----9--9--9----9--9--9----9-9s6------------------|
|-9h11-11-11-9h11-11-11-9h11-9s6------------------|
|--------------------------------8b9==(9)r(8)p6---|
|-----------------------------------------------8-|
|-------------------------------------------------|
|-------------------------------------------------|

( Bb9            Eb9                 Bb9                  F+ )

|----------6-6---6--6-6-6-(6)----6-|----6-----6-----------------||
|----------------------------------|----------------------------||
|----------8-6-8s9--8-6-9s=8p6---6-|----------8p6---------------||
|-(8)--------------------------8---|-8-(8)--------8p6-----------||
|----------------------------------|------------------8-8-------||
|----------------------------------|----------------------------||

 Verse 1
  Bb9                               Eb9
|---------------------------------|-----------------|
|-------------------6-------------|-----------------|
|---------------------8-6---------|-----------------|
|-------------------------8-6-(6)-|-----------------|
|---------------------------------|-----------------|
|---------------------------------|-----------------|

  Bb9                                        B9
|---------6-(6)-6-6---6-6--6-6----6------6-6-6-|
|----------------------------------------------|
|---------------6-8-8s9-9--6-8b10-8-6-9s=8-6-6-|
|----------------------------------------------|
|----------------------------------------------|
|----------------------------------------------|

  Bb9
|----6----(6)-6-6---6---6--6-6-(6)------|
|---------------------------------------|
|-6-(6)---(6)-6-8---8---6--8-9s=8-------|
|---------------------------------------|
|---------------------------------------|
|---------------------------------------|

  Eb9                      E9  Eb9
|--------------------6-6-6---|-----------------|
|----------------------------|-----------------|
|----------------------8-6---|-----------------|
|----------------------------|-----------------|
|----------------------------|-----------------|
|----------------------------|-----------------|

  Bb7                          B7    Bb7
|---------------6------6-----6-6-6-|-6-6----(6)-6-6---6---6--6--------|
|----------------------------------|----------------------------------|
|---------------6-8p6--8b9---6-8-6-|------------6-8-8s9---6--8--------|
|----------------------------------|-8-8----(8)-----------------------|
|----------------------------------|----------------------------------|
|----------------------------------|----------------------------------|

  F9                       E9  Eb9       Eb
|------------------6-6-6-6---|-----------------|
|----------------------------|-----------------|
|------------------6-8-6-----|-----------------|
|------------------------8---|-----------------|
|----------------------------|-----------------|
|----------------------------|-----------------|

  Bb9             Eb7       E°7         Bb9                    F+
|---------6---6-6-6-(6)-6-6-6-(6)-6-6-|-6-6----(6)-----6-----------------||
|-------------------------------------|----------------------------------||
|-------------6-8-9s=8--6-8-9s=8--6-6-|------------9s8-------------------||
|---------8---------------------------|-8-8----(8)-------8-6-------------||
|-------------------------------------|----------------------8------6----||
|-------------------------------------|----------------------------------||

 Verse 2
  Bb7                               Eb7XI           Eb7sus4
|---------------6-6-6-(6)---------|----------------------------|
|---------------------------------|-----------------6----------|
|---------------6-8-9s=8--6-------|--------------------8-6-----|
|---------------------------8p=6--|------------------------8---|
|---------------------------------|----------------------------|
|---------------------------------|----------------------------|

(  Bb9             B9  Bb9 )

|-----------------6-6-6-(6)---6---|-----------------|
|---------------------------------|-----------------|
|---------------------8p=6--------|-----------------|
|---------------------------8-----|-----------------|
|---------------------------------|-----------------|
|---------------------------------|-----------------|

  Bb9                                      B9
|-------6-6---6-(6)-6--6-6-6--6-(6)(6)-----6-6-|
|----------------------------------------------|
|-------6-8---8s=9--6--8-6-8--9s=8p=6----6-6---|
|--------------------------------------8-----8-|
|----------------------------------------------|
|----------------------------------------------|

  Bb9                                     B9
|-6-6----(6)-6-6-6-(6)-----------------------|
|--------------------------------------------|
|------------6-8-8s=9--6-8-6-----------------|
|-8-8----(8)------------------8-6------------|
|--------------------------------------------|
|--------------------------------------------|

  F9                       E9  Eb9       Eb7
|----------------------------|---------------------|
|------------------6---------|---------------------|
|--------------------8-6-----|---------------------|
|------------------------8-6-|---------------------|
|----------------------------|---------------------|
|----------------------------|---------------------|

  Bb7               Eb7      E°7           Bb7              Bb13
|-------6-6---6-6-6-6--6-6-6-----6---6-6-|-6-6-6-------6-------------||
|----------------------------------------|---------------------------||
|---------6---8-8s9-6--8-6-8-9s8---------|---------6h8p6-------------||
|----------------------------------------|-8-8-8---------------------||
|----------------------------------------|---------------------------||
|----------------------------------------|---------------------------||

 Guitar Solo:
  Eb9                           E9      Eb9
|---18-18--------------------18-18-18-|-18-18-------------------18-18-18-18----|
|-------------------------------------|----------------------------------------|
|------18b19--------------------18-20-|-18-------------------------18-20-20b21-|
|---20-----------------------20-------|----20-------------------20-------------|
|-------------------------------------|----------------------------------------|
|-------------------------------------|----------------------------------------|

  Bb9                  B9    Bb9
|----------------------18----|-18---18-18-18-18-18-18-18------------------|
|----------------------------|--------------------------------------------|
|-------------------------18-|-20---18-20-20-20-18-20-18------------------|
|----------------------------|----------------------------20-20-(20)\-----|
|----------------------------|--------------------------------------------|
|----------------------------|--------------------------------------------|

  F7                              E7
|-----6-6-6---6-6-6-6----6----------|
|-----------------------------------|
|-----6-8-8---6-8-6-8--8s9----------|
|-----------------------------------|
|-----------------------------------|
|-----------------------------------|

  Eb7
|---6---6-6-(6)-6---6-6-6-6-6-----6-(6)-6-6-6-------|
|---------------------------------------------------|
|-------6-8s=9--6---8-6-9s8-6---6h8-(8)-6-----8-6---|
|---8-------------------------8-----------8---------|
|---------------------------------------------------|
|---------------------------------------------------|

      Bb9
|-6---------18-18---18----(18)-18-18-18---18------------|
|-------------------------------------------------------|
|-----------18-20---20b21-(21)-18-20-18---20b21---18-18-|
|---8---------------------------------------------------|
|-------------------------------------------------------|
|-------------------------------------------------------|

                                       F+
|------------------------------------------------||
|------------------------------------------------||
|------------8b10==(10)r(8)p6--------------------||
|-20-20-20--------------------8p6----------------||
|---------------------------------8--------------||
|------------------------------------------------||

 Verse 3:
  Bb1Bb73                     Eb9
|---------------------------|-----------------|
|----------------6----------|-----------------|
|------------------8-6------|-----------------|
|---------------------------|-----------------|
|---------------------------|-----------------|
|---------------------------|-----------------|

( Bb9   B9  Bb9 )

  Eb9                                   Eb7
|---------------6-6-6-(6)(6)(6)-------|-----------------|
|-------------------------------------|-----------------|
|---------------6---8s=9s=8p=6----6---|-----------------|
|-------------------------------8-----|-----------------|
|-------------------------------------|-----------------|
|-------------------------------------|-----------------|

  Bb13              Bb7                      Bb13              Bb7
|-------6-6---6-6-6-6------------6---6-6---|---6---6-6---6-(6)-6--6-----------|
|------------------------------------------|----------------------------------|
|---------6---8-8s9----8-6---9s8---------6-|---6-----8---8s=9--6--8---6-------|
|------------------------------------------|-8----------------------8---------|
|------------------------------------------|----------------------------------|
|------------------------------------------|----------------------------------|

  F9                         E9  Eb9
|------------------------------|-----------------|
|--------------------6---------|-----------------|
|----------------------8-6-----|-----------------|
|--------------------------8-6-|-----------------|
|------------------------------|-----------------|
|------------------------------|-----------------|

  Bb7               Eb7      E°7
|-------6-6---6-6-6-6--6-6-6-----6---6-6-|
|----------------------------------------|
|---------6---8-8s9-6--8-6-6-9s8-------6-|
|-------8--------------------------8-----|
|----------------------------------------|
|----------------------------------------|

  Bb7                 F+
|-----6-----6-6-6---------------18-18-18--||
|-----------------------------------------||
|-----------9-8-6------------------18-20--||
|-8-8-8-----------8-------------20--------||
|---------------------8-------------------||
|-----------------------------------------||

 Out-Solo
         Bb9
|---------18-------------------|--------18-18-18-18-18--------18---------|
|------------------------------|-----------------------------------------|
|-20b22==(22)------------------|--------18-20-18--------------18---------|
|------------------------------|---20------------------20-20-------------|
|------------------------------|-----------------------------------------|
|------------------------------|-----------------------------------------|

|-------18-18-18-18---------------|---18------18-18------18-18-18-18--18-18------------------|
|---------------------------------|----------------------------------------------------------|
|----------18-20-20b22------------|--------18-20-20b22---18-20-18-20-------------18b20==(20)-|
|-------22------------------------|---20------------------------------------20---------------|
|---------------------------------|----------------------------------------------------------|
|---------------------------------|----------------------------------------------------------|

|------------------------------------*|
|------------------------------------*|
|---18-18-------18b20==(20)----------*|
|---------20-20----------------------*|
|------------------------------------*|
|------------------------------------*|
Composição de Buddy Guy
2.839 exibições
    • ½ Tom
    • A
    • Bb
    • B
    • C
    • Db
    • D
    • Eb
    • E
    • F
    • F#
    • G
    • Ab
  • Adicionar à lista

    0 comentários

    Ver todos os comentários

    Conseguiu tocar?

    0 Tocaram 0 Ainda não

    Grave um vídeo tocando Leave My Girl Alone e nos envie!

    00:00 / 00:00
    outros vídeos desta música
    repetir qualidade Automático
    Outros vídeos desta música
    00:00 / 00:00
    Automático

    Cifra Club Pro

    Aproveite o Cifra Club com benefícios exclusivos e sem anúncios
    Cifra Club Pro
    Aproveite o Cifra Club com benefícios exclusivos e sem anúncios
    OK