Cifra Club

Aprenda

What Kind Of Woman Is This

Buddy Guy

Cifra: Principal (violão e guitarra)
tom: E
[Intro]  D9/E  Em6/A  D9/E  Em6/A
         D9/E  Em6/A  D9/E  Em6/A

riff principal:

                  E
E|----------------------------------------|     
B|----------------------------------------|     
G|----------------------------------------|     
D|----------------------------------------|     
A|-----------5-6-7--5---------------------|     
E|---0-x-7--------------7-----------------|     

                  A
E|-----------------------------------------|
B|-----------------------------------------|
G|-----------------------------------------|
D|-----------5-6-7----5--------------------|
E|-----x-7---------------7-----------------|    X8
E|--5--------------------------------------|

                  B
E|--------------------------------------|
B|--------------------------------------|
G|--------------------------------------|
D|-----------7-8-9---7------------------|
A|-------9-----------------9------------|
E|---7----------------------------------|

E|----------------------------------------|
B|----------------------------------------|
G|----------------------------------------|
D|----------------------------------------|
A|---7---x----5-6-7---5-------------------|   repete tudo.
E|---------7-------------7----------------|   

solo intro:

parte 1

E|----10p12~----10----------------------|
B|------------------12-10---------------|
G|-------------------------12--9--12~---|
D|--------------------------------------|
A|--------------------------------------|
E|--------------------------------------|

parte 2

E|----------------------------------------------|
B|----------------------------------------------|
G|----12/14-12b--9-----14p12------12------------|
D|----------------------------14-------14p12----|
A|----------------------------------------------|
E|----------------------------------------------|.

  E
The gates of Heaven must be open
A                                   E
I think I saw an angel just walk by
A
Hey, the gates of heaven must be open
E
I think I saw an angel just walk by

B                                 A
I heard a blind man screamin', say
                                        E
Now there goes a sight for my sore eyes
A                                E
There goes a sight for my sore eyes
A                                       E
Now there goes a sight for my sore eyes
E               E
What kind of woman is this?
                                           
                                    E
You should be locked up, pretty girl
A                              E
In my bedroom with me
A                                         E
Hey, you should be locked up, pretty girl
E
In my bedroom with me
B                                       A
So we can do the same thing that Adam
E
Did under that old apple tree
A                                E
What he did under that apple tree
A                               E
What he did under that apple tree
E
Well, well, well, well, well, well

Choke out

[Solo]
                                        E
There's always some good lookin' girls
A                               E
Hangin' 'round this famous place
A                                               E
Well, hey, there's always some good lookin' girls
A                                                        E
Hangin' round this famous place, talkin' bout legends now
B                                A
Aww, but this particular one
E                                     A
Looked like somethin' from outer space
E
She looked like somethin' from outer space
A                               E
What kind of woman is this?
E                       E
Hmm, what kind of woman is this?

What kind of woman is this?
Ooh, what kind of woman is this?
Look at that, she shakes all over when she walk

She made a blind man see
Made a dumb man talk

E                               A
What kind of woman is this?

( E  A )
( E  A )
( E  A )

Hmm, shucks

E                                       A
Tell me, hey, what kind of woman is this, man?
Somebody gotta, gotta, gotta, gotta
Gotta, gotta, gotta tell me, tell me
What kind of woman is this?
Composição de Buddy Guy
Colaboração e revisão:
  • ramon taffarel
  • Gabriel
2.550 exibições
    • ½ Tom
    • A
    • Bb
    • B
    • C
    • Db
    • D
    • Eb
    • E
    • F
    • F#
    • G
    • Ab
  • Adicionar à lista

    0 comentários

    Ver todos os comentários

    Conseguiu tocar?

    0 Tocaram 0 Ainda não

    Grave um vídeo tocando What Kind Of Woman Is This e nos envie!

    00:00 / 00:00
    Outros vídeos desta música
    Repetir Qualidade Automático
    Outros vídeos desta música
    00:00 / 00:00
    Automático

    Cifra Club Pro

    Aproveite o Cifra Club com benefícios exclusivos e sem anúncios
    Cifra Club Pro
    Aproveite o Cifra Club com benefícios exclusivos e sem anúncios
    OK