Notificações Amigos pendentes

      Bullet For My Valentine

      All These Things I Hate

      92.266 exibições
      Tom: A#
      All These Things I Hate (Revolve Around Me)
      The Poison
      
      Tabbed By: Carlson2000
      Drop C Tuning - (C,G,C,F,A,D)
      \ = slide down
      / = slide up
      * = harmonic
      h = hammer on
      p = pull off
      . = Palm Mute
      
      Updated: 05/10/05 - Modified Bridge 3.
      
      Intro (Acoustic) x2
      =====
      
      |-----------------------------------------|
      |-----------------------------------------|
      |-88888888---6666666---444444--3333--4444-|
      |-66666666---4444444---222222--1111--2222-|
      |-66666666---4444444---222222--1111--2222-|
      |-66666666---4444444---222222--1111--2222-|
      
      
       -------------------------------------------------|
       -------------------------------------------------|
       -88888888---1111111111111111--444444--3333--4444-|
       -66666666---9-9-9-9-9-9-9-9---222222--1111--2222-|
       -66666666---9-9-9-9-9-9-9-9---222222--1111--2222-|
       -66666666---9-9-9-9-9-9-9-9---222222--1111--2222-|
      
      
      Pre-Chorus
      ==========
      
      |-----------------------------------------------|
      |-----------------------------------------------|
      |-66666666---888888--66--44444444---8888---6666-|
      |-44444444---666666--44--22222222---6666---4444-|
      |-44444444---666666--44--22222222---6666---4444-|
      |-44444444---666666--44--22222222---6666---4444-|
      
      
       ----------------------------------------|
       ----------------------------------------|
       --44444444---8888---6666---44444444--3~-|
       --22222222---6666---4444---22222222--1~-|
       --22222222---6666---4444---22222222--1~-|
       --22222222---6666---4444---22222222--1~-|
      
      
      Chorus
      ======
      
      |-------------------------------|
      |-------------------------------|
      |--------888888----------666666-|
      |-6666-6----------4444-4--------|
      |-6666-6----------4444-4--------|
      |-6666-6----------4444-4--------|
      
        .... .          .... .
      
       --------------------------|
       --------------------------|
       --------------------------|
       -222222/1111111/2222-4444-|
       -222222/1111111/2222-4444-|
       -222222/1111111/2222-4444-|
      
      
      Post Chorus x3
      ===========
      
      |-----------|
      |-----------|
      |-66--6-6p8-|
      |-66--------|
      |-66--------|
      |-66--------|
      
        ..
      
      Verse x4 (Not correct but it fits)
      =====
      
      |--------------------------------------------|
      |--------------------------------------------|
      |--8--8--8----6--6--6----4--4--4-----3----4--|
      |---6--6-------4--4-------2--2------1----2---|
      |----6--6-------4--4-------2--2-----------2--|
      |-6----------4----------2----------1--1/2----|
      
      
      then;
      Pre-Chorus
      Chorus x4
      
      Bridge 1 x2
      ========
      
      |-----------|
      |-----------|
      |-66--6-6p8-| x4
      |-66--------|
      |-66--------|
      |-66--------|
      
        ..
      
      |--------|
      |--------|
      |-4~--6~-|
      |-2~--4~-|
      |-2~--4~-|
      |-2~--4~-|
      
      Bridge 2 x2
      ========
      
      
      |-----------|         |---------------|
      |-----------|         |---------------|
      |-66--6-6p8-| x2 then |-666666--6-6p8-|
      |-66--------|         |-666666--------|
      |-66--------|         |-666666--------|
      |-66--------|         |-666666--------|
      
        ..                    ......
      
      |--------|
      |--------|
      |-4~--6~-|
      |-2~--4~-|
      |-2~--4~-|
      |-2~--4~-|
      
      Break
      =====
      
      |-------------------|
      |-------------------|
      |-------------------|
      |-------------------|
      |-------------------|
      |-6b-6b-6b-6b-6b-6b-|
      
      
      Bridge 3
      ========
      
      |--------------------------------| \
      |--------------------------------|  |
      |----------4-3----666666--888888-|  |
      |-222-222------4--444444--666666-|  |
      |-222-222---------444444--666666-|  |
      |-222-222---------444444--666666-|  |
      
        ... ...                            \ x2
                                           /
      
      |--------------------------------|  |
      |--------------------------------|  |
      |----------4-6-3--666666--888888-|  |
      |-222-222---------444444--666666-|  | 
      |-222-222---------444444--666666-|  |
      |-222-222---------444444--666666-| /
      
        ... ...
      
      THEN
      
      
      |----------------------|
      |----------------------|
      |-444444444444--333333-|
      |-222222222222--111111-|
      |-222222222222--111111-|
      |-222222222222--111111-|
      
                      ......
      
      Chorus x4 (First time round don't play notes on F string)
      
      Outro
      =====
      
      |-----------|
      |-----------|
      |-66--6-6p8-| x4
      |-66--------|
      |-66--------|
      |-66--------|
      
        ..
      
      
      |-------------|
      |-------------|
      |-8~\\6~\\4~\-|
      |-------------|
      |-------------|
      |-------------|
      
        Composição: Matthew Tuck

        Comentários 15

        140 .
        • thiibennington thiibennington: Em 24/02/2013 19:33

          Galerinha, uma cifra simplificada pra vocês, usando somente:F

        • thiibennington thiibennington: Em 24/02/2013 19:32

          Usa F

        • thiibennington thiibennington: Em 24/02/2013 19:32

          Galerinha, uma cifra simplificada pra vocês, usando somente:F

        • moralis moralis: Em 08/08/2012 16:10

          baah q merda isso aí ta errado

        • klaragermanotta klaragermanotta: Em 01/06/2012 14:32

          Merda, eu queria as CIFRAS NORMAL _|_

        • divineintervent divineintervent: Em 04/05/2012 14:12

          essa cifra aí tá errada pow.

        • f3lipee f3lipee: Em 30/01/2012 17:03

          Tem a cifra em afinação padrão não?? Drop C é foda, tem que desafinar tudo mó trabalho, :S

        140 cancelar

        conseguiu tocar?

        covers

        Grave um vídeo tocando All These Things I Hate e mande pra gente!

        Ex.: http://www.youtube.com/watch?v=0IvSvIwGdwk
        ver covers de outras músicas »
        0:00 / 0:00

        Capítulos

          2 versões de baixo exibições contribuição e correção
          1 versão de Guitar Proformatodownloadscontribuição
          play/pausefechar subir/descer velocidade
          6ª corda E5ª corda A4ª corda D3ª corda G2ª corda B1ª corda E
            acordes
            publicidade
            fechar
            ok