Cifra Club

Road To Nowhere

Bullet For My Valentine

Cifra: Principal
exibições 43.346
Tom: D
Intro: Bm  G  A  D  F#m
       Bm  G  A  F#m

Bm        G                     A
Tired and lonely still we stand
                     D F#m
on a road to nowhere
Bm           G                     A
Trapped in a world of endless days
                    D F#m
my engine's stalling (road to nowhere)
Bm       G                    A
Body and mind are breaking down
                     D   F#m
on this road to nowhere
Bm      G                  A
Destiny silent hear no sound

as i wait forever

G              A
Farewell, i'll miss you
    F#m             Bm
i'm sick of these goodbyes
         G (deixa soar)
'Cause it tore us apart right from the start
A
I miss you

E|-------------------------------------------------------------------------|
B|---------------------xh3-2-0-2-3-5-3-x-h7-5-3-5-3-2-3-xh7-5-3-5-7-8-7----|
G|----------------2----x---------------x----------------x------------------|
A|----------0h2h4------x---------------x----------------x------------------|
A|-----0h2-----------------------------------------------------------------|
D|-0h2---------------------------------------------------------------------|

Bm           G
Feeling have failed me
           A
left me cold
                    D  F#m
on this road to nowhere
Bm            G
Dreams are my saviors
           A
save me now
                      D  F#m
'Cause I know I'm falling

G              A
Farewell, i'll miss you
    F#m              Bm
i'm sick of these goodbyes
         G (deixa soar mano)
'Cause it tore us apart right from the start
A
I miss you

D|----------------------------||
A|-----------------------------||
F|---------------------4h6----||
C|-------------2h4/6----------||
G|-------2h4------------------||
D|--2h4-----------------------||

D|-----------------------------------------||
A|---------------------------------7-------||
F|------x--9----8----6----8----9-------9---||
C|----x------------------------------------||
G|--x--------------------------------------||
D|-----------------------------------------||

D|-----------------------------------------||
A|---------9----7---------7----------------||
F|------x------------9---------9---8---9---||
C|----x------------------------------------||
G|--x--------------------------------------||
D|-----------------------------------------||

D|----------------------------------------||------||
A|---------9----7---------7----9--10---9--||--5~~-||
F|------x------------9--------------------||------||
C|----x-----------------------------------||------||
G|--x-------------------------------------||------||
D|----------------------------------------||------||

Candles burn slowly,
Flames shine so brightly
Light in the darkness,
Save me from madness again
Only the lonely,
could possibly know me
Heat keeps on rising,
Fire engulfs me again

G              A
Farewell, i'll miss you
    F#m              Bm
i'm sick of these goodbyes
         G
'Cause it tore us apart right from the start
A
I miss you

G              A
Farewell, i'll miss you
    F#m              Bm
i'm sick of these goodbyes
         G (vai soando)
'Cause it tore us apart right from the start
A            D
I miss you

(dedilhado final)
D|--------7---------------|
A|--------------------7---|
F|-----9------------------|
C|---9----------9--7------|
G|-7----------7-----------|
D|------------------------|

0 comentários

    mostrar mais comentários

    Conseguiu tocar?

    29tocaram0ainda não

    Grave um vídeo tocando Road To Nowhere e mande pra gente!

    00:00 / 00:00
    outros vídeos desta música
    repetirqualidadeautomática
    Outro vídeos desta música
      00:00 / 00:00
      automática
      OK