Cifra Club

Aprenda

Preppies' Beach Clubhouse

Bully SoundTrack

Cifra: Principal (violão e guitarra)
tom: A
[Primeira parte]

E|---------------------------------|
B|--------------8------------------|
G|------5--5-7^9-5--7--------------|
D|0-/5-7-7-------------------------|
A|---------------------------------|
E|---------------------------------|

E|---------------------------------|
B|-----------5---------------------|
G|-7-7brp5---5------------5--------|
D|---------7----7~---0/5-7--7~-----|
A|---------------------------------|
E|---------------------------------|

E|-------------------8-------------|
B|------------8-8/10---10p8---10\--|
G|------5-7/9---------------9--9\--|
D|0/5-7----------------------------|
A|---------------------------------|
E|---------------------------------|

E|---------------------------------|
B|---------------------------------|
G|---5-7br-5-7-5-------------------|
D|0/7-----------7-5-5h7------------|
A|---------------------7~----------|
E|---------------------------------|

E|----8-------------8-10-10/12-8---------|
B|/10---10---10--10--------------10---10-|
G|---------9------------------------9----|
D|---------------------------------------|
A|---------------------------------------|
E|---------------------------------------|

E|12-12-12-12--10-10-10-10--8---8---8-
B|13-13-13-13--12-12-12-12--10--10--10
G|------------------------------------|
D|------------------------------------|
A|------------------------------------|
E|------------------------------------|

E|----8---------------8-10-10/12-8---------|
B|/10---10---10~--/10--------------10---10~|
G|---------9--------------------------9----|
D|-----------------------------------------|
A|-----------------------------------------|
E|-----------------------------------------|

E|-12-12-12-12--10-10-10-10--8---8---8|
B|-13-13-13-13--12-12-12-12--10--10--10|
G|-------------------------------------|
D|-------------------------------------|
A|-------------------------------------|
E|-------------------------------------|

E|----8----------------------------------------------|
B|/10---10--8-8h10-8---------------------------------|
G|---------------------7br~--5-7-5-5~----5-5h7p5-----|
D|------------------------------------------------7~-|
A|---------------------------------------------------|
E|---------------------------------------------------|

[Segunda parte]

E|--------------------------|
B|-------------8------------|
G|-----5-5-7-7b-7-5-5h7p5---|
D|0/5-7-7-----------------7-|
A|--------------------------|
E|--------------------------|

E|---------------------------------|
B|------------5--------------------|
G|-----5-7----5--------------------|
D|--/7-----7----7~--5--5h7p5-------|
A|----------------------------7--7~|
E|---------------------------------|

E|-------------------8-------------|
B|------------8-8/10---10p8---10\--|
G|------5-7/9---------------9--9\--|
D|0/5-7----------------------------|
A|---------------------------------|
E|---------------------------------|

E|-------------------------|
B|--------8----------------|
G|---5-7b--7br-5~----------|
D|0/7------------7---5-5h7~|
A|-------------------------|
E|-------------------------|

E|--------------7-8-10-10/12-8----------|
B|-------8-8/10----------------10---10~-|
G|---5-7--------------------------9-----|
D|-7------------------------------------|
A|--------------------------------------|
E|--------------------------------------|

E|--------------7-8-10-10/12-12/15-12-8/12-|
B|-------8-8/10----------------------------|
G|---5-7-----------------------------------|
D|-7---------------------------------------|
A|-----------------------------------------|
E|-----------------------------------------|

E|--------------7-8-10-10/12-8----------|
B|-------8-8/10----------------10---10~-|
G|---5-7--------------------------9-----|
D|-7------------------------------------|
A|--------------------------------------|
E|--------------------------------------|


[Variação]

E|-12-12-12-12--10-10-10-10--8---8---8---7---8-|
B|-13-13-13-13--12-12-12-12--10--10--10--8---10|
G|---------------------------------------------|
D|---------------------------------------------|
A|---------------------------------------------|
E|---------------------------------------------|
Colaboração e revisão:
  • Brenio Hallison
1.717 exibições
    • ½ Tom
    • A
    • Bb
    • B
    • C
    • Db
    • D
    • Eb
    • E
    • F
    • F#
    • G
    • Ab
  • Adicionar à lista

    0 comentários

    Ver todos os comentários

    Conseguiu tocar?

    5 Tocaram 2 Ainda não

    Grave um vídeo tocando Preppies' Beach Clubhouse e nos envie!

    00:00 / 00:00
    outros vídeos desta música
    repetir qualidade Automático
    Outros vídeos desta música
    00:00 / 00:00
    Automático

    Cifra Club Pro

    Aproveite o Cifra Club com benefícios exclusivos e sem anúncios
    Cifra Club Pro
    Aproveite o Cifra Club com benefícios exclusivos e sem anúncios
    OK