Cifra Club

Aprenda

Enquanto o Trem Que Espero Não Vem

Cachorro Grande

Cifra: Principal (violão e guitarra)
Já pensou em usar uma coleção de roupas do Cifra Club? Responda as perguntas abaixo e nos ajude nessa missão! →
tom: C
Intro 4x: Em G
E|-----------------------|
B|---------------6/8--5--|
G|-2h4p2-0---------------|
D|---------2-------------|
A|-----------------------|
E|-----------------------|

Em                       G
   Fumando um cigarro,eu fico a pensar
       Am           Em
   quando vou ver você de novo
     Am         Em
   a brisa bate no meu rosto
     B7                          Em
   a noite vem e passa a revelar

                         G
   As minhas dúvidas,as minhas explosões
      Am           Em
   se você ainda está com medo
      Am           Em
   se ainda me guarda segredo

        B7
   se o trem que espero vai vir mesmo

( Em G ) (2x)

Em                           G
   Fumando outro cigarro,eu fico a lembrar
       Am             Em
   das chuvas que nós já tomamos
      Am            Em
   as confusões que arrumamos
      B7                         Em
   as vezes que saimos sem pagar

                      G
   Pela cidade escura,até o dia amanhecer
     Am             Em
   atrás de algum boteco aberto
       Am              Em
   que bom que é ter você por perto
         B7                            Em (riff 2) A|0-0-1-2-
   e o trem não tá no horário certo        

( B7 )

   Am          Em
   que venha o vento
             B7
   e sopre o tempo
       Am        Em
   que passa devagar
        Am          Em
   E eu paro pra pensar
        B7
   se o trem que espero vai vir mesmo

( Em G )

Solo: Em G Am Em Am Em B7 Em
                                                        (2x)
E|-------------------------------------|----------7---------|-----10----10----12-10-7---5~-|
B|--------------12-17-15-12------12-12b|--8-10-10---10-8-5-5|--12----12----12---------8----|
G|--------12--14-----------14-12-------|--------------------|------------------------------|
D|14-14-16-----------------------------|--------------------|------------------------------|
A|-------------------------------------|--------------------|------------------------------|
E|-------------------------------------|--------------------|------------------------------|

Solo 2:
    B7 Am Em B7             Am       Em          Am        Em        B7
E|----------------------------|----5--------12-----------5--------12---------7--|
B|----------------------------|----5--------12--12-------5--------12--12-----7--|
G|-----9h7-7----7/9-7---------|--5-------12------------5-------12------------8--|
D|-7/9------9h7-------9--7/9--|7------14-------------7------14---------------9--|
A|----------------------------|-------------------------------------------------|
E|----------------------------|-------------------------------------------------|

Riff 3: A|2-0-------

Em                       G
   Fumando um cigarro,eu fico a pensar
      Am            Em
   Quando vou ver você de novo
     Am          Em
   A brisa bate no meu rosto
     B7                          Em
   A noite vem e passa a revelar

                        G
   As minhas dúvidas,as minhas explosões
      Am           Em
   Se você ainda está com medo
      Am           Em
   Se ainda me guarda segredo

        B7
   Se o trem que espero vai vir mesmo

( Em )
Composição de Marcelo Gross
Colaboração e revisão:
  • Luiz Melo
3.278 exibições
    • ½ Tom
    • A
    • Bb
    • B
    • C
    • Db
    • D
    • Eb
    • E
    • F
    • F#
    • G
    • Ab
  • Adicionar à lista

    0 comentários

    Ver todos os comentários

    Conseguiu tocar?

    0 Tocaram 0 Ainda não

    Grave um vídeo tocando Enquanto o Trem Que Espero Não Vem e nos envie!

    00:00 / 00:00
    Outros vídeos desta música
    Repetir Qualidade Automático
    Outros vídeos desta música
    00:00 / 00:00
    Automático

    Cifra Club Pro

    Aproveite o Cifra Club com benefícios exclusivos e sem anúncios
    Cifra Club Pro
    Aproveite o Cifra Club com benefícios exclusivos e sem anúncios
    OK