Cifra Club

Aprenda

Pedro Balão

Cachorro Grande

Cifra: Principal (violão e guitarra)
Já pensou em usar uma coleção de roupas do Cifra Club? Responda as perguntas abaixo e nos ajude nessa missão! →
tom: C
Intro: (Riff 1 + Riff 2)

Riff 1:
e|0---0------0---0-----0---0------|
B|3-----3----2-----2---1------1---|
G|1----------1---------1----------|
D|2----------2---------2----------|
A|2----------2---------2----------|
E|0----------0---------0----------|

Riff 2:
e|3--3---------------|
B|3--3-------6-------|
G|4--4---7h5----7-5--|
D|5--5---------------|
A|5--5---------------|
E|3--3---------------|

Riff 3:
e|3--3-----------------------|
B|3--3-----------------------|
G|4--4-----------------4-----|
D|5--5---3h5-3---3-0-3---3---|
A|5--5---------5-------------|
E|3--3-----------------------|

(Riff 3)
Pedro balão então queria voar
(Riff 3)                          F
Ele é mais leve que o ar...que o ar

(Riff 2 - 2x)

(Riff 3)
Pedro Balão queria fotografar
(Riff 3)                            F
Mas não consegue nem focar...nem focar

(Riff 2 - 2x)

(Riff 1)                               (Riff 2 - 2x)
Pedro balão não consegue fotografar
(Riff 1)                          (Riff 2 - 2x)
Pedro balão mais leve que o ar

(Riff 3)
Pedro balão também queria cantar
(Riff 3)                      F
Mas não consegue afinar...afinar

(Riff 2 - 2x)

(Riff 3)
Pedro balão tem que voltar a estudar
(Riff 3)                              F
Não vai poder mais se drogar...se drogar

(Riff 2 - 2x)

(Riff 1)                            (Riff 2 - 2x)
Pedro balão não vai mais se drogar
(Riff 1)                          (Riff 2 - 2x)
Pedro balão não consegue afinar
Solo: (Riff 3) F (Riff 2)
E|----------------------------15---------------------------------|
B|----------------------15-15----18--------------15h13-----------|
G|---------16h17p16h17---------------16h17p16h17-------16h14-12~-|
D|15/17~~--------------------------------------------------------|
A|---------------------------------------------------------------|
E|---------------------------------------------------------------|

E|15-15--13b-13b-13b-13b-13b---20b-20b-20b-18--13p15-13-15-15----|
B|15-15--13b-13b-13b-13b-13b-------------------------------------|
G|---------------------------------------------------------------|
D|---------------------------------------------------------------|
A|---------------------------------------------------------------|
E|---------------------------------------------------------------|

E|----------------------------15---------------------------------|
B|----------------------15-15----18--------------15h13-----------|
G|---------16h17p16h17---------------16h17p16h17-------16h14-12~-|
D|15/17~~--------------------------------------------------------|
A|---------------------------------------------------------------|
E|---------------------------------------------------------------|

E|15-15--13b-13b-13b-13b-13b----------------------|
B|15-15--13b-13b-13b-13b-13b----------------------|
G|------------------------------------------------|
D|-----------------------------17b--17h15---------|
A|-----------------------------------------17-17b-|
E|------------------------------------------------|

(Riff 1)                             (Riff 2 - 2x)
Pedro balão não vai mais se drogar
(Riff 1)                         (Riff 2 - 2x)
Pedro balão mais leve que o ar
E|3-3-----------3-3--------------3-3---------|
B|3-3--6----3---3-3--6h8--11-8---3-3--11-8---|
G|4-4--7----4---4-4--7----10-7---4-4--10-7---|
D|5-5-----------5-5--------------5-5---------|
A|5-5-----------5-5--------------5-5---------|
E|3-3-----------3-3--------------3-3---------|

( G )
Composição de Beto Bruno
Colaboração e revisão:
  • Luiz Melo
2.862 exibições
    • ½ Tom
    • A
    • Bb
    • B
    • C
    • Db
    • D
    • Eb
    • E
    • F
    • F#
    • G
    • Ab
  • Adicionar à lista

    0 comentários

    Ver todos os comentários
    00:00 / 00:00
    Outros vídeos desta música
    Repetir Qualidade Automático
    Outros vídeos desta música
    00:00 / 00:00
    Automático

    Cifra Club Pro

    Aproveite o Cifra Club com benefícios exclusivos e sem anúncios
    Cifra Club Pro
    Aproveite o Cifra Club com benefícios exclusivos e sem anúncios
    OK