Cifra Club

Aprenda

Roda-gigante

Cachorro Grande

Cifra: Principal (violão e guitarra)
Já pensou em usar uma coleção de roupas do Cifra Club? Responda as perguntas abaixo e nos ajude nessa missão! →
tom: G
Intro
e|--------------|
B|--------------|
G|--------------|
D|-2-0----------|
A|-----2-0------|
E|---------3--0-|

Riff I
  Em             A  (base)
e|---------------------------|
B|-12--------12--------------|
G|-14b(16)12-----------------|
D|--------------2-0----------|
A|------------------2-0------|
E|----------------------3--0-|

Riff II
  Em            A  (base)
e|----------------------------|
B|-12--------12---------------|
G|-14b(16)12----------------0-|
D|----------------------2-0---|
A|------------------2-0-------|
E|--------------3-0-----------|

Intro 1x + Riff I + 3x + Riff II 

  G             Am                          (Riff I + Riff II)
Com você eu consigo enxergar bem mais longe
  G             Am                      (Riff I 3x)
Fica tão colorido mesmo muito distante
  G                Am                         (Riff I + Riff II)
Parece que o tempo todo passou nesse instante
  G                Am                         (Riff I + Riff II)
O mundo inteiro girando como uma roda gigante

 F                     Em
E eu não quero mais descer
 F                 Em    (Intro 1x + Riff I + 3x + Riff II)
Não tenho medo de você    

 G                Am                           (Riff I + Riff II)
Eu não preciso falar e você está me entendendo
 G               Am                               (Riff I 3x + Riff II)
Eu só preciso te olhar e sei que está acontecendo
 G              Am                     (Riff I 2x)
Até parece um sonho mas estou acordado
 G                Am                                   (Riff I 2x)
Se estou com meus pés no chão posso voar bem mais alto

 F                      Em
E eu não quero mais descer
 F                 Em
Não tenho medo de você
 F                 Em
Eu só preciso de você
 F                        Em
Não tenho medo de me perder por aí

SOLO
    F                       Em                       F             
e|-----------13---17-15-13-----------------------------------13---------|
B|---------13-----17-15-13-------------------------------------13-------|
G|------14------------------14b-12----14b-12~~-------------14-----(...)-| segue|-se solando sobre
D|-13s15---------------------------14-----------14-12h14-15-------------| os acordes de F e Em.
A|----------------------------------------------------------------------|
E|----------------------------------------------------------------------|

*  Durante o refrão rola um dedilhado dos acordes correspondentes.
Composição de Beto Bruno
Colaboração e revisão:
  • Mateus Paul
57.493 exibições
    • ½ Tom
    • A
    • Bb
    • B
    • C
    • Db
    • D
    • Eb
    • E
    • F
    • F#
    • G
    • Ab
  • Adicionar à lista

    0 comentários

    Ver todos os comentários
    00:00 / 00:00
    Outros vídeos desta música
    Repetir Qualidade Automático
    Outros vídeos desta música
    00:00 / 00:00
    Automático

    Cifra Club Pro

    Aproveite o Cifra Club com benefícios exclusivos e sem anúncios
    Cifra Club Pro
    Aproveite o Cifra Club com benefícios exclusivos e sem anúncios
    OK