Sexperienced

Cachorro Grande

Composição de: Jerônimo Lima
tom: E
Tab: Mateus Pranzetti

Riff 1
e|--------------------------|
B|-4-4-4-4-5--5-4--4-5--4-5-|
G|-4-4-4-4-4--4-4--4-4--4-4-|
D|-4---4--------------------|
A|-2---2--------------------|
E|--------------------------|

Intro
  C#m                     E                  C#m             E   <= Guitarra Base
e|-------------------------------------------------------------12s14-12-|
B|-12s14~~--14-12----------------12-----------12s14~~-12s14-12----------|
G|-----------------13-11-13---13---13h-----13---------------------------|
D|-------------------------------------14-------------------------------|
A|----------------------------------------------------------------------|
E|----------------------------------------------------------------------|

 E                                    C#m
Quero uma garota que já tenha sexperienced
 E                                                 C#m
Não tenho razão para me importar com que os outros pensem
 A         F#         C#m
Não tenho medo de te dizer
 A         F#         C#m
Que essa garota pode ser você
 A         F#         C#m     Riff 1
Desde que tenha sexperienced

 E                                          C#m
Já experimentei ter paciência com as mais inibidas
 E                                         C#m
Mas enchi o saco agora quero só mulheres vividas
 A         F#         C#m
Na cara dura vou te dizer
 A         F#         C#m
Que essa garota pode ser você
 A         F#         C#m        
Desde que tenha sexperienced

Riff 1  B C C#m

Interlude

guitarra 1 :
  C#m             E        C#m           E
e|-7s9~--9-7------------7------7s9-9s7--12s14s12-|
B|------------9-7-9--9-------9-------------------|
G|-------------------------9---------------------|
D|-----------------------------------------------|
A|-----------------------------------------------|
E|--------------------------------------------- -|


guitarra 2 :

E|---------------------------------------------------------------------------------|
B|--5-5-5-5----------------------------------------------5-5-5-5-------------------|
G|--6-6-6-6----------------------------------------------6-6-6-6-------------------|
D|--6-6-6-6-----------------------------------2----------6-6-6-6-------------------|
A|--4-4-4-4---2/4--2---------------2--2--4-4----4-2---2--4-4-4-4---2/4-2-----------|
E|-------------------4-2--0-0--4-4------------------4--------------------4-2-0-----|

E|--------------------------------|
B|--------------------------------|
G|---2-2-2-----2-2-2--------------|
D|---2-2-2--2--2-2-2--2-----------|
A|---0-0-0--2--0-0-0--2-----------|
E|----------0---------0-----------|


 A         F#         C#m
Não tenho medo de te dizer
 A         F#         C#m
Que essa garota pode ser você
 A         F#         C#m    
Desde que tenha sexperienced
 A         F#         C#m    
Desde que tenha sexperienced
 A         F#         C#m    
Desde que tenha sexperienced

Riff 1 B C 

Final
e|--9------------------7------|
B|--9---------------9--7h9-9--|
G|--9---------------9------9--|
D|-11--9h11-9-------9------9--|
A|-11---------11-9--7------7--|
E|--9-------------------------|
Página 1 / 1

Letras e título
Acordes e artista

resetar configurações
OK