Cifra Club

Aprenda

Velha Amiga

Cachorro Grande

Cifra: Principal (violão e guitarra)
Já pensou em usar uma coleção de roupas do Cifra Club? Responda as perguntas abaixo e nos ajude nessa missão! →
tom: C
(solo inicial acompanha as partes)

"você tem que olhar a estrada
Com uma cara cansada
Como uma velha amiga
Que você já não agüenta mais

Estou aqui de passagem
A vida é uma mala pronta pra viagem
Minha cabeça é minha bagagem
E a estrada é uma velha amiga"

e|-----------------|--------------------|-----7--------5-------5--------5---|
b|-----8-6----6-8--|-----8-6----6--8----|---8---8----8---8---8---8----8---8-|
g|---7------7------|---7------7---------|---------------------------5-------|
d|-5------5--------|-5------5-----------|------------------7----------------|
a|-----------------|--------------------|-7---------------------------------|
e|-----------------|--------------------|---------8-------------------------|

(parte a seguir acompanha este trecho da letra)

"com quem você pode contar velha amiga?"

E|-8---10--7----7-----|-8---10--7----7-----|-8---10--7----7-----|-x----|este último
B|-10--12--8---8-8----|-10--12--8---8-8----|-10--12--8---8-8----|-x----|acorde é
g|-10--12--9--9---9---|-10--12--9--9---9---|-10--12--9--9---9---|-12---|tocado
D|-10--12--9----------|-10--12--9----------|-10--12--9----------|-12---|seguidas vezes
A|-x---x---x----------|-x---x---x----------|-x---x---x----------|-10---|até voltar o solo
E|-x---x---x----------|-x---x---x----------|-x---x---x----------|-x----|do início.

(repita a música novamente até a parte à cima. após siga com esta parte)

e|--x---x--x--x--x--x---x--x---x--x-|--x---x--x--x--x--x---x--x---x--x-|
b|--x---x--x--x--x--x---x--x---x--x-|--x---x--x--x--x--x---x--x---x--x-|
g|--12/16-16-16-16-16--14-14--12-12-|--12/16-16-16-16-16--14-14--12-12-|
d|--12/16-16-16-16-16--14-14--12-12-|--12/16-16-16-16-16--14-14--12-12-|
a|--10/14-14-14-14-14--12-12--10-10-|--10/14-14-14-14-14--12-12--10-10-|
e|--x---x--x--x--x--x---x--x---x--x-|--x---x--x--x--x--x---x--x---x--x-|

e|--x--x--x--x--x--x--x--x--x--x--x--x--x--x--x--x--x--x--x--x|
b|--x--x--x--x--x--x--x--x--x--x--x--x--x--x--x--x--x--x--x--x|
g|-12-12-12-12-12-12-12-12-12-12-12-12-12-12-12-12-12-12-12-12|
d|-12-10-10-12-10-12-10-12-10-10-10-10-12-10-10-12-10-12-10-12|
a|-10-10-10-10-10-10-10-10-10-10-10-10-10-10-10-10-10-10-10-10|
e|--x--x--x--x--x--x--x--x--x--x--x--x--x--x--x--x--x--x--x--x|

e|--x---x--x--x--x--x---x--x---x--x-|--x---x--x--x--x--x---x--x---x--x-|
b|--x---x--x--x--x--x---x--x---x--x-|--x---x--x--x--x--x---x--x---x--x-|
g|--12/16-16-16-16-16--14-14--12-12-|--12/16-16-16-16-16--14-14--12-12-|
d|--12/16-16-16-16-16--14-14--12-12-|--12/16-16-16-16-16--14-14--12-12-|
a|--10/14-14-14-14-14--12-12--10-10-|--10/14-14-14-14-14--12-12--10-10-|
e|--x---x--x--x--x--x---x--x---x--x-|--x---x--x--x--x--x---x--x---x--x-|

e|--x--x--x--x--x--x--x--x--x--x--x--x--x--x--x--x--x--x--x--x|
b|--x--x--x--x--x--x--x--x--x--x--x--x--x--x--x--x--x--x--x--x|
g|-12-12-12-12-12-12-12-12-12-12-12-12-12-12-12-12-12-12-12-12|
d|-12-10-10-12-10-12-10-12-10-10-10-10-12-10-10-12-10-12-10-12|
a|-10-10-10-10-10-10-10-10-10-10-10-10-10-10-10-10-10-10-10-10|
e|--x--x--x--x--x--x--x--x--x--x--x--x--x--x--x--x--x--x--x--x|

e|--x--x--x--x--x--x--x--x--x-|
b|--x--x--x--x--x--x--x--x--x-|
g|--7--9-10--9--7--9-10--9--7-|
d|--7--9-10--9--7--9-10--9--7-|
a|--5--7--8--7--5--7--8--7--5-|
e|--x--x--x--x--x--x--x--x--x-|

e|--x--x--x--x--x--x--x--x--x--x--x--x--x--x--x--x--x--x--x--x|
b|--x--x--x--x--x--x--x--x--x--x--x--x--x--x--x--x--x--x--x--x|
g|-12-12-12-12-12-12-12-12-12-12-12-12-12-12-12-12-12-12-12-12|
d|-12-10-10-12-10-12-10-12-10-10-10-10-12-10-10-12-10-12-10-12|
a|-10-10-10-10-10-10-10-10-10-10-10-10-10-10-10-10-10-10-10-10|
e|--x--x--x--x--x--x--x--x--x--x--x--x--x--x--x--x--x--x--x--x|

e|--x---x--x--x--x--x---x--x---x--x-|--x---x--x--x--x--x---x--x---x--x-|
b|--x---x--x--x--x--x---x--x---x--x-|--x---x--x--x--x--x---x--x---x--x-|
g|--12/16-16-16-16-16--14-14--12-12-|--12/16-16-16-16-16--14-14--12-12-|
d|--12/16-16-16-16-16--14-14--12-12-|--12/16-16-16-16-16--14-14--12-12-|
a|--10/14-14-14-14-14--12-12--10-10-|--10/14-14-14-14-14--12-12--10-10-|
e|--x---x--x--x--x--x---x--x---x--x-|--x---x--x--x--x--x---x--x---x--x-|

e|--x--x--x--x--x--x--x--x--x--x--x--x--x--x--x--x--x--x--x--x|
b|--x--x--x--x--x--x--x--x--x--x--x--x--x--x--x--x--x--x--x--x|
g|-12-12-12-12-12-12-12-12-12-12-12-12-12-12-12-12-12-12-12-12|
d|-12-10-10-12-10-12-10-12-10-10-10-10-12-10-10-12-10-12-10-12|
a|-10-10-10-10-10-10-10-10-10-10-10-10-10-10-10-10-10-10-10-10|
e|--x--x--x--x--x--x--x--x--x--x--x--x--x--x--x--x--x--x--x--x|

e|-----------------|--------------------|-----7--------5-------5--------5---|
b|-----8-6----6-8--|-----8-6----6--8----|---8---8----8---8---8---8----8---8-|
g|---7------7------|---7------7---------|----------5-------5--------7-------|
d|-5------5--------|-5------5-----------|-----------------------------------|
a|-----------------|--------------------|-7---------------------------------|
e|-----------------|--------------------|-----------------------------------|

e|-----------------|--------------------|-----7--------5-------5--------5---|
b|-----8-6----6-8--|-----8-6----6--8----|---8---8----8---8---8---8----8---8-|
g|---7------7------|---7------7---------|----------5-------5--------7-------|
d|-5------5--------|-5------5-----------|-----------------------------------|
a|-----------------|--------------------|-7---------------------------------|
e|-----------------|--------------------|-----------------------------------|
Composição de Beto Bruno / Marcelo Gross
Colaboração e revisão:
  • Arthur Debiasi
  • Fernando Graff
  • Élison Duarte
26.082 exibições
    • ½ Tom
    • A
    • Bb
    • B
    • C
    • Db
    • D
    • Eb
    • E
    • F
    • F#
    • G
    • Ab
  • Adicionar à lista

    0 comentários

    Ver todos os comentários
    00:00 / 00:00
    Outros vídeos desta música
    Repetir Qualidade Automático
    Outros vídeos desta música
    00:00 / 00:00
    Automático

    Cifra Club Pro

    Aproveite o Cifra Club com benefícios exclusivos e sem anúncios
    Cifra Club Pro
    Aproveite o Cifra Club com benefícios exclusivos e sem anúncios
    OK