Cifra Club

Você Não Sabe o Que Perdeu

Cachorro Grande

Cifra: Principal
exibições 114.439
Tom: C
Intro: D C D F (4x) conforme a tablatura abaixo:

E|--x-x-x---x-x-x---x-x-x---x--x--x--x----|
B|--7-7-7---5-5-5---7-7-7---10-10-10-10---|
G|--x-x-x---x-x-x---x-x-x---x--x--x--x----|
D|--7-7-7---5-5-5---7-7-7---10-10-10-10---|
A|--5-5-5---3-3-3---5-5-5---8--8--8--8----|
E|--x-x-x---x-x-x---x-x-x---x--x--x--x----|

Riff 2(verso):

E|-------------------------------|
B|--10-10-10--8---8----8--8--8---|
G|--11-11-11--9--9h10--9--9--9---|
D|--12-12-12--10--10---10-10-10--|
A|-------------------------------|
E|-------------------------------|

D           C
PRA ONDE EU VOU 
       D         C
NÃO PRECISA DE DINHEIRO 
D           C
PRA ONDE EU VOU 
     D              C
É ALEGRIA O TEMPO INTEIRO 


Riff 1(intro) (2x)
  

D       C
SE VOCÊ FOR 
    D             C
NÃO VAI SE ARREPENDER 
D          C
MAS SE NÃO FOR 
     D            C
O QUE É QUE VÃO DIZER? 

  
G        F                  Riff 3
VOCÊ NÃO SABE O QUE PERDEU 
G        F                  Riff 4(abafado)
VOCÊ NÃO VIU O QUE ACONTECEU

REPETE TUDO

Riff 3
E|--------10---10---10----------------------|
B|----6-8-8b10-8b10-8b10-6------------------|
G|5/7----------------------7-5-7~~~~--------|
D|------------------------------------------|
A|------------------------------------------|
E|------------------------------------------|

Riff 4(abafado) junto com a batera

E|-----xxxxxxxxxxxxxxxxxxxxxxx-------|
B|-----xxxxxxxxxxxxxxxxxxxxxxx-------|
G|-----xxxxxxxxxxxxxxxxxxxxxxx-------|
D|-----xxxxxxxxxxxxxxxxxxxxxxx-------|
A|-----xxxxxxxxxxxxxxxxxxxxxxx-------|
E|-----xxxxxxxxxxxxxxxxxxxxxxx-------|

A BASE DO SOLO É A INTRODUÇAO
Acordes para:
    Colaboração e revisão:

    0 comentários

      mostrar mais comentários

      Conseguiu tocar?

      4tocaram0ainda não

      Grave um vídeo tocando Você Não Sabe o Que Perdeu e mande pra gente!

      00:00 / 00:00
      outros vídeos desta música
      repetirqualidadeautomática
      Outro vídeos desta música
        00:00 / 00:00
        automática
        OK