Cifra Club

Aprenda

O Leãozinho

Caetano Veloso

Cifra: Curso-ukulele (violão e guitarra)
tom: G
[Primeira Parte]

  G
A|--------2---------2---------2-------2-----|
E|--------3---------3---------3-------3-----|
G|-2-----------2---------2--------2---------|
G|----0------0----0---0----0----0---0---0---|

                        D
A|-------2---------2---------0-------0------|
E|-------3---------3---------2-------2------|
G|-2----------2---------2--------2----------|
G|----0-----0----0---0----0----2---2---2----|

   Em7                 Bm7 
A|-------2--------2---------2-------2-------|
E|-------0--------0---------2-------2-------|
G|-2----------2--------2--------2-----------|
G|----0-----0---0---0----2----2---2---2-----|

   C                    F  
A|-------3---------3---------0-------0------|
E|-------0---------0---------1-------1------|
G|-0----------0---------0--------0----------|
G|----0-----0----0---0----2----2---2---2----|

   G
A|--------2---------2---------2-------2-----|
E|--------3---------3---------3-------3-----|
G|-2-----------2---------2--------2---------|
G|----0------0----0---0----0----0---0---0---|

G                    D
  Gosto muito de te ver,leãozinho
Em7                  Bm7
   Caminhando sob o sol
C                    F            G
  Gosto  muito de você, leãozinho
                 D
Para desentristecer, leãozinho
Em7                      Bm7
     O  meu coração tão só
C                       F          G
  Basta eu encontrar você no caminho

[Segunda Parte]

   Em                Em/D#
A|-----2--------2--------2--------2---------|
E|-----3--------3--------3--------3---------|
G|-4-------4---------3-------3--------------|
G|---0---0---0----0----0---0---0-----0------|

   G                     C#m7(5-)
A|--------2---------2---------2-------2-----|
E|--------3---------3---------3-------3-----|
G|-2-----------2---------1--------1---------|
G|----0------0----0---0----0----0---0---0---|

   C7M                  Em7 
A|-------2---------2---------2-------2------|
E|-------0---------0---------0-------0------|
G|-0----------0---------2--------2----------|
G|----0-----0---0----0----0----0---0---0----|

   Am7                  D       
A|-------0---------0---------0-------0------|
E|-------0---------0---------2-------2------|
G|-0----------0---------2--------2----------|
G|----0-----0---0----0----2----2---2---2----|

Em               Em/D#           G  C#m7(5-)
Um  filhote de leão, raio da manhã
C7M                 Em7          Am  D
Arrastando o meu olhar como um imã
Em                 Em/D#      G      C#m7(5-)
O meu coração é o sol pai de toda cor
  C7M                   Em7     Am  D
Quando ele lhe doura a pele ao léu

[Terceira Parte]

 G                  D
Gosto de te ver ao sol, leãozinho
Em7                      Bm7
    De te ver entrar no mar
 C             F          G
Tua pele, tua luz, tua juba
                   D
Gosto de ficar ao sol, leãozinho
Em7                    Bm7
    De molhar minha juba
 C                   F             G
De estar perto de você e entrar numa

[Segunda Parte]

Em               Em/D#           G  C#m7(5-)
Um  filhote de leão, raio da manhã
C7M                 Em7          Am  D
Arrastando o meu olhar como um imã
Em                 Em/D#      G      C#m7(5-)
O meu coração é o sol pai de toda cor
  C7M                   Em7     Am  D
Quando ele lhe doura a pele ao léu

[Terceira Parte]

 G                  D
Gosto de te ver ao sol, leãozinho
Em7                      Bm7
    De te ver entrar no mar
 C             F          G
Tua pele, tua luz, tua juba
                   D
Gosto de ficar ao sol, leãozinho
Em7                    Bm7
    De molhar minha juba
 C                   F             G
De estar perto de você e entrar numa
Composição de Caetano Veloso
Colaboração e revisão:
  • Gustavo Vaz
2.075 exibições
  • Simplificar cifra
    • ½ Tom
    • A
    • Bb
    • B
    • C
    • Db
    • D
    • Eb
    • E
    • F
    • F#
    • G
    • Ab
  • Adicionar à lista

    0 comentários

    Ver todos os comentários

    Conseguiu tocar?

    1 Tocaram 0 Ainda não

    Grave um vídeo tocando O Leãozinho e nos envie!

    00:00 / 00:00
    Outros vídeos desta música
    Repetir Qualidade Automático
    Outros vídeos desta música
    00:00 / 00:00
    Automático
    Capítulos
    • Apresentação/Equipamentos
    • Ensinando Acordes
    • Ensinando Ritmo da Música
    • Ritmo da Primeira Parte - Parte 1 de 5
    • Ritmo da Primeira Parte - Parte 2 de 5
    • Ritmo da Primeira Parte - Parte 3 de 5
    • Ritmo da Primeira Parte - Parte 4 de 5
    • Ritmo da Primeira Parte - Parte 5 de 5
    • Ritmo da Segunda Parte - Parte 1 de 4
    • Ritmo da Segunda Parte - Parte 2 de 4
    • Ritmo da Segunda Parte - Parte 3 de 4
    • Ritmo da Segunda Parte - Parte 4 de 4
    • Tocando Música Inteira
    • Encerramento

    Cifra Club Pro

    Aproveite o Cifra Club com benefícios exclusivos e sem anúncios
    Cifra Club Pro
    Aproveite o Cifra Club com benefícios exclusivos e sem anúncios
    OK