Cifra Club

Oração Ao Tempo

Caetano Veloso

Cifra: Principal (violão e guitarra)
tom: D
[Intro] D  D4  D  D9

E|-2-3--2----0------------------------------|
B|-3-3--3----3------------------------------|
G|-2-2--2----2------------------------------|
D|-0-0----0--0------------------------------|
A|------------------------------------------|
E|------------------------------------------|

[Primeira Parte]
  
Parte 1 De 3

   D      A7     D      A7
E|-2-2-----------2--2------------------------|
B|-3-3----2-2----3--3---2-2------------------|
G|-2-2----0-0----2--2---0-0------------------|
D|-0-0-0--2-2----0----0-2-2------------------|
A|--------0---0---------0---0----------------|
E|-------------------------------------------|

Parte 2 De 3

   Bb            Bm      E       G 
E|-------------------------------------------|
B|-3-3----3--3---3-3-----0--0----3--3--------|
G|-3-3----3--3---4-4-----1--1----0--0--------|
D|-3-3----3--3---4-4-----2--2----0--0--------|
A|-1------1----1-2----2----------------------|
E|------1----------------0----0--3----3------|

Parte 3 De 3

   G      D     D9         D4
E|--------2-2---0h2p0--------3---------------|
B|-3-3----3-3----------3-3-------------------|
G|-0-0----2-2----------2-2-------------------|
D|-0-0----0---0--------0---0-----------------|
A|-------------------------------------------|
E|-3---3-------------------------------------|

D           A7        D
  És um senhor tão bonito
          A7          Bb
Quanto a cara do meu filho
                   Bm
Tempo tempo tempo tempo
          E        G
Vou te fazer um pedido
                   D    D9  D4  D
Tempo tempo tempo tempo

      A7          D
Compositor de destinos
    A7              Bb
Tambor de todos os ritmos
                   Bm
Tempo tempo tempo tempo
          E          G
Entro num acordo contigo
                   D    D9  D4  D
Tempo tempo tempo tempo

       A7           D
Por seres tão inventivo
       A7       Bb
E pareceres contínuo
                   Bm
Tempo tempo tempo tempo
           E           G
És um dos deuses mais lindos
                    D   D9  D4  D
Tempo tempo tempo tempo

       A7             D
Que sejas ainda mais vivo
    A7              Bb
No som do meu estribilho
                   Bm
Tempo tempo tempo tempo
      E               G
Ouve bem o que eu te digo
                   D    D9  D4  D
Tempo tempo tempo tempo

        A7          D
Peço-te o prazer legítimo
     A7           Bb
E o movimento preciso
                   Bm
Tempo tempo tempo tempo
           E           G
Quando o tempo for propício
                   D   D9  D
Tempo tempo tempo tempo

[Segunda Parte]

          A7         D
De modo que o meu espírito
           A7        Bb
Ganhe um brilho definido
                   Bm
Tempo tempo tempo tempo
        E         G
E eu espalhe benefícios

                   D    D9  D
Tempo tempo tempo tempo
        A7         D
O que usaremos pra isso
          A7        Bb
Fica guardado em sigilo
                   Bm
Tempo tempo tempo tempo
    E             G
Apenas contigo e migo
                   D    D9  D4  D
Tempo tempo tempo tempo

         A7         D
E quando eu tiver saído
      A7          Bb
Para fora do teu círculo
                   Bm
Tempo tempo tempo tempo
     E               G
Não serei nem terás sido
                   D    D9  D4  D
Tempo tempo tempo tempo

      A7         D
Ainda assim acredito
        A7       Bb
Ser possível reunirmo-nos
                   Bm
Tempo tempo tempo tempo
           E        G
Num outro nível de vínculo
                   D    D9  D4  D
Tempo tempo tempo tempo

          A7        D
Portanto peço-te aquilo
         A7      Bb
E te ofereço elogios
                   Bm
Tempo tempo tempo tempo
           E        G
Nas rimas do meu estilo
                   D 
Tempo tempo tempo tempo
Composição de Caetano Veloso
Colaboração e revisão:
397.959 exibições
    • ½ Tom
    • A
    • Bb
    • B
    • C
    • Db
    • D
    • Eb
    • E
    • F
    • F#
    • G
    • Ab
  • Adicionar à lista

    0 comentários

    Ver todos os comentários

    Conseguiu tocar?

    81 Tocaram 12 Ainda não

    Grave um vídeo tocando Oração Ao Tempo e nos envie!

    00:00 / 00:00
    Outros vídeos desta música
    Repetir Qualidade Automático
    Outros vídeos desta música
    00:00 / 00:00
    Automático
    Capítulos
    • Início
    • Tocando a música
    • Acordes da música
    • Ensinando Introdução
    • Ensinando Estrofes
    • Ensinando Variações
    • Encerramento

    Cifra Club Pro

    Aproveite o Cifra Club com benefícios exclusivos e sem anúncios
    Cifra Club Pro
    Aproveite o Cifra Club com benefícios exclusivos e sem anúncios
    OK