Cifra Club

Reconvexo

Caetano Veloso

Cifra: Principal (violão e guitarra)
Tom: D
E|-2-2--2-2--0-0--0-0-----------------------------------------|
B|3--3-3--3-2--2-2--2-----------------------------------------|
G|------------------------------------------------------------|
D|------------------------------------------------------------|
A|------------------------------------------------------------|
E|------------------------------------------------------------|

E|-2-2--2-2--0-0--0-0-----------------------------------------|
B|3--3-3--3-2--2-2--2-----------------------------------------|
G|------------------------------------------------------------|
D|------------------------------------------------------------|
A|------------------------------------------------------------|
E|------------------------------------------------------------|

E|-2-2--2-2--0-0--0-0-----------------------------------------|
B|3--3-3--3-2--2-2--2-----------------------------------------|
G|------------------------------------------------------------|
D|------------------------------------------------------------|
A|------------------------------------------------------------|
E|------------------------------------------------------------|

E|-2-2--2-2--0-0--0-0-----------------------------------------|
B|3--3-3--3-2--2-2--2-----------------------------------------|
G|------------------------------------------------------------|
D|------------------------------------------------------------|
A|------------------------------------------------------------|
E|------------------------------------------------------------|
    D            A7                   D
Eu sou a chuva que lança a areia do Saara
          A7            D   A7
Sobre os automóveis de Roma
    D                A7                 D
Eu sou a sereia que dança, a destemida Iara
     A7             D      D7
Água e folha da Amazônia
    G               A7        D              B7
Eu sou a sombra da voz da matriarca da Roma Negra
             Em    A7                  D         D7
Você não me pega, você nem chega a me ver
            G              A7      Bm
Meu som te cega, careta, quem é você?
            Em                  A7       D      D7
Que não sentiu o suingue de Henri Salvador
            Em                  A7       D      D7
Que não seguiu o Olodum balançando o Pelô
            Em                  A7       D      D7
E que não riu com a risada de Andy Warhol
           Em                   A7
Que não, que não, e nem disse que não

    D        A7              D
Eu sou o preto norte-americano forte com um brinco de
A7           D     A7
Ouro na orelha
    D                   A7
Eu sou a flor da primeira música,
        D           A7                D        D7
A mais velha e mas nova espada e seu corte
    G                A7              D                B7
Eu sou o cheiro dos livros desesperados, sou Gitá, Gogoya
            Em     A7                D      D7
Seu olho me olha, mas não me pode alcançar
             G7                   A7       Bm 
Não tenho escolha, careta, vou descartar
            Em                  A7       D      D7
Quem não rezou a novena de Dona Canô
            Em                  A7       D      D7
Quem não seguiu o mendigo Joãozinho Beija-Flor
            Em                  A7       D      D7
Quem não amou a elegância sutil de Bobô
            Em                   G  A7   D
Quem não é recôncavo e nem pode ser reconvexo
exibições 85.615
Acordes para:
    Composição: Caetano Veloso Colaboração e revisão:

    0 comentários

    mostrar mais comentários

    Conseguiu tocar?

    21 tocaram 5 ainda não

    Grave um vídeo tocando Reconvexo e mande pra gente!

    00:00 / 00:00
    outros vídeos desta música
    repetir qualidade Automático
    Outros vídeos desta música
    00:00 / 00:00
    Automático
    OK