Cifra Club

Sozinho

Caetano Veloso

Cifra: Principal (violão e guitarra)
tom: D
[Intro] F7M  Em7(9)  A7(4)

   F7M       Em7(9)    A7(4)
E|---0-0-0-----2-2-2--------------------------|
B|---1-1-1-----3-3-3------5-----5-----5-----5-|
G|---2-2-2-----0-0-0------7-----7-----7-----7-|
D|------------------------5-----5-----5-----5-|
A|---------------------0-----0-----0-----0----|
E|-1---------0--------------------------------|

[Primeira Parte]

Parte 1 de 4
   D6(9)    A7/C#     B2      Bm B2 Bm 
E|-----5--------5---------------------------|
B|-----5--------5----------2--3--2--3-------|
G|-----4--------0----------4--4--4--4-----2-|
D|-------------------------4--4--4--4---4---|
A|-5------5-4------4--2---------------------|
E|------------------------------------------|

Parte 2 de 4
   Em        Em/D     A7/C#     A7
E|-----0---------0------5--5--5-----0---0---|
B|-0---0---------0------5--5--5-----2---2---|
G|-0---0---------0------0--0--0-----0---0---|
D|-2-------2-0------0-----------------------|
A|--------------------4---------0-0-------0-|
E|-0----------------------------------------|

Parte 3 de 4
   D6(9)    A7/C#     B2      Bm    B7(4) Bm 
E|-5---5--------5----------------2--------2-|
B|-5---5--------5----------2--3--3---5----3-|
G|-4---4--------0----------4--4--4---2----4-|
D|-------------------------4--4------4------|
A|-5------5-4------4--2---------------------|
E|------------------------------------------|

Parte 4 de 4
   Em        Em/D      A7
E|-----0---------0--------------------------|
B|-0---0---------0-----2--2---------2-------|
G|-0---0---------0-----0--0---------0-------|
D|-2-------2-0---------2--2--2----2---------|
A|---------------------0--------0-----------|
E|-0----------------------------------------|

D6(9)
      Às vezes
      A7/C#        B2  Bm  B2  Bm
No silêncio da noite
Em               Em/D      A7/C#  A7
   Eu fico imaginando nós dois
D6(9)                 A7/C#     B2  Bm
      Eu fico ali sonhando acordado
    B7(4)  Bm
Juntando
Em              Em/D       A7
   O antes, o agora e o depois

[Segunda Parte]

Parte 1 de 3
       Bm    F#m7   G7M
E|-----------------------2-0-----2-0--------|
B|--------3--2--2--------3---3---3---3------|
G|--------4--2--2--------4-----4-4-----4----|
D|--------4--2--2------------------------4--|
A|-0-1-2------------------------------------|
E|-----------2------3--3-------3-----3------|

Parte 2 de 3
   Bm    F#m7   Bm7/E
E|------------------------------------------|
B|-3--3--2--2----7---7---7---7---7----------|
G|-4--4--2--2----7---7---7---7---7----------|
D|-4--4--2--2----7---7---7---7---7----------|
A|-2----------------------------------------|
E|-------2-----0---0---0---0---0-----0------|

Parte 3 de 3
   Bm    F#m7   G7M
E|----------------2-0---------2-0-----------|
B|-3--3--2--2---3-----3-----------3---------|
G|-4--4--2--2---4-------4-----------4-------|
D|-4--4--2--2---4---------4-----------4-----|
A|-2----------------------------------------|
E|-------2------3-----------3---------------|

Bm                  F#m7         G7M
   Por que você me deixa tão solto?
Bm                   F#m7    Bm7/E
   Por que você não cola em mim?
Bm                 F#m7       G7M
   Tô me sentindo muito sozinho

[Terceira Parte]

Parte 1 de 4
   D6(9)    A7/C#     B2   Bm    B2 Bm 
E|-5---5--------5-------------2-------------|
B|-5---5--------5--------2-3--3--2--3-------|
G|-4---4--------0--------4-4--4--4--4--4--2-|
D|-----------------------4-4-----4--4--4--4-|
A|-5------5-4------4--2---------------------|
E|------------------------------------------|

Parte 2 de 4
   Em        Em/D     A7/C#    A7
E|-----0---------0--------5----------------|
B|-0---0---------0--------5--------2---2---|
G|-0---0---------0--------0--------0---0---|
D|-2-------2-0------0------------2-----2---|
A|--------------------4-----4--0---------0-|
E|-0---------------------------------------|

Parte 3 de 4
   D6(9)    A7/C#     B2      Bm    B7(4) Bm 
E|-5---5--------5----------------2--------2-|
B|-5---5--------5----------2--3--3---5----3-|
G|-4---4--------0----------4--4--4---2----4-|
D|-------------------------4--4------4------|
A|-5------5-4------4--2---------------------|
E|------------------------------------------|

Parte 4 de 4
   Em        Em/D    A7/C#       A7
E|-----0---------0-----5---5---5-------0----|
B|-0---0---------0-----5---5---5-------2----|
G|-0---0---------0-----0---0---0-----0------|
D|-2-------2-0---------------------2--------|
A|-------------------4---4---4---0----------|
E|-0----------------------------------------|

D6(9)  
      Não sou nem quero
 A7/C#       B2  Bm  B2  Bm
Ser o seu dono
Em  
   É que um carinho
    Em/D       A7/C#  A7
Às vezes, cai bem
D6(9)                      A7/C#
      Eu tenho os meus segredos
      B2  Bm     B7(4)  Bm 
E planos     secre_____tos
Em                Em/D
   Só abro pra você
          A7/C#  A7
Mais ninguém

[Quarta Parte]

Parte 1 de 3
       Bm    F#m7 G7M
E|------------------2-0-------2-0-----------|
B|--------3--2--2---3---3-----3---3---3-----|
G|--------4--2--2---4-----4---4-----4---4---|
D|--------4--2--2-----------4---------------|
A|-0-1-2------------------------------------|
E|-----------2----3-----3-----3-----3-------|

Parte 2 de 3
   Bm    F#m7  Bm7/E
E|---------------7------7---7--7------------|
B|-3--3--2--2----7------7---7--7------------|
G|-4--4--2--2----7------7---7--7------------|
D|-4--4--2--2----7------7---7--7------------|
A|-2----------------------------------------|
E|-------2-----0------0---------------------|

Parte 3 de 3
   Bm    F#m7   G7M
E|----------------2-0-------2-0-------------|
B|----3--2--2-----3---3-----3---3-----------|
G|----4--2--2-----4-----4---4-----4---------|
D|----4--2--2-------------4---------4-------|
A|-2----------------------------------------|
E|-------2------3-----3-----3-----3---------|

Bm                     F#m7     G7M
   Por que você me esquece e some?
Bm                    F#m7       Bm7/E
   E se eu me interessar por alguém?
Bm                 F#m7         G7M
   E se ela, de repente, me ganha?

[Refrão]

Parte 1 de 7
   D6(9)  A7/C#      G7M
E|-5--5------5----------2-0------2----------|
B|-5--5------5----------3--------3----------|
G|-4--4------0----------4--------4----------|
D|------------------------------------------|
A|-5----5-4-----4---------------------------|
E|-------------------3-------3------3-------|

Parte 2 de 7
   Em       Em/D         C     C/G
E|-----0------0---0---0-----0--0---0--------|
B|-0---0------0---0---0-----1--1---1--------|
G|-0---0------0---0---0-----0--0---0--------|
D|-2-----2--0---0---0----------2------------|
A|-----------------------3-----3------------|
E|-0---------------------------3------3-----|

Parte 3 de 7
   D     A7/C# Bm             G       G/A
E|-2--2--5--5--2--2-------------------------|
B|-3--3--5--5--3--3-----------0--0----3--3--|
G|-2--2--0--0--4--4--4-2------0--0----4--4--|
D|-0---------------------4-2--0--0----5--5--|
A|-------4-----2----------------------0-----|
E|----------------------------3-------------|

Parte 4 de 7
   D6(9)    A7(4)
E|----5---5---------------------------------|
B|----5---5------5----5---------------------|
G|----4---4------7----7---------------------|
D|---------------5----5---------------------|
A|-5--------0-0----------0------------------|
E|------------------------------------------|

Parte 5 de 7
   D6(9)  A7/C#      G7M
E|-5--5---5--5---------2-2-0-----2-0--------|
B|-5--5---5--5---------3-3---3-------3------|
G|-4--4---0--0---------4-4-----4-------4----|
D|---------------------------------------4--|
A|-5----5-4-----4---------------------------|
E|-------------------3---3-----3-----3------|

Parte 6 de 7
   Em       Em/D         C     C/G
E|-----0------0---0---0-----0--0---0--------|
B|-0---0------0---0---0-----1--1-------1----|
G|-0---0------0---0---0-----0--0-----0---0--|
D|-2-----2--0---0---0----------2------------|
A|-----------------------3-----3------------|
E|-0---------------------------3------------|

Parte 7 de 7
   D     A7/C# Bm             G       G/A
E|-2--2--5--5--2--2-------------------------|
B|-3--3--5--5--3--3-----------0--0----3-----|
G|-2--2--0--0--4--4--4-2------0--0----4-----|
D|-0---------------------4-2--0--0----5-----|
A|-------4-----2----------------------0-----|
E|----------------------------3-------------|

  D6(9)
Quando a gente gosta
    A7/C#            G7M
É claro que a gente cuida
 Em   
Fala que me ama
 Em/D                 C   C/G
Só que é da boca pra fora
D   
Ou você me engana
A7/C#          Bm    G
Ou não está madura
G/A              D6(9)  A7(4)
Onde está você agora?

D6(9)
Quando a gente gosta
    A7/C#            G7M
É claro que a gente cuida
 Em   
Fala que me ama
 Em/D                 C   C/G
Só que é da boca pra fora
D   
Ou você me engana
A7/C#          Bm    G
Ou não está madura
G/A              
Onde está você agora?
00:00 / 00:00
Outros vídeos desta música
Repetir
Outros vídeos desta música
Composição de Peninha
6.330.584 exibições
  • Simplificar cifra
    • ½ Tom
    • A
    • Bb
    • B
    • C
    • Db
    • D
    • Eb
    • E
    • F
    • F#
    • G
    • Ab
  • Adicionar à lista

    0 comentários

    Ver todos os comentários

    Entre para oCifra Club PRO

    Tenha acesso a benefícios exclusivos no App e no Site

    • Chega de anúncios

    • Prioridade de compra em lançamentos

    • Mais recursos no app do Afinador

    • Atendimento Prioritário

    • Descontos nos produtos Cifra Club

    • Ajude a produzir mais conteúdo

    00:00 / 00:00
    Capítulos
    • Tocando a Música
    • Apresentação/Equipamentos
    • Acordes da Introdução
    • Tocando Introdução
    • Ensinando Introdução
    • Acordes da Primeira Parte
    • Tocando Primeira Parte
    • Ensinando Primeira Parte - Parte 1 de 4
    • Ensinando Primeira Parte - Parte 2 de 4
    • Ensinando Primeira Parte - Parte 3 de 4
    • Ensinando Primeira Parte - Parte 4 de 4
    • Acordes da Segunda Parte
    • Tocando Segunda Parte
    • Ensinando Segunda Parte - Parte 1 de 3
    • Ensinando Segunda Parte - Parte 2 de 3
    • Ensinando Segunda Parte - Parte 3 de 3
    • Tocando Quarta Parte
    • Ensinando Quarta Parte - Parte 1 de 3
    • Ensinando Quarta Parte - Parte 2 de 3
    • Ensinando Quarta Parte - Parte 3 de 3
    • Acordes do Refrão
    • Tocando Refrão
    • Ensinando Refrão - Parte 1 de 7
    • Ensinando Refrão - Parte 2 de 7
    • Ensinando Refrão - Parte 3 de 7
    • Ensinando Refrão - Parte 4 de 7
    • Ensinando Refrão - Parte 5 de 7
    • Ensinando Refrão - Parte 6 de 7
    • Ensinando Refrão - Parte 7 de 7
    • Encerramento

    Cifra Club Pro

    Aproveite o Cifra Club com benefícios exclusivos e sem anúncios
    Cifra Club Pro
    Aproveite o Cifra Club com benefícios exclusivos e sem anúncios
    OK