Cifra Club

You Don't Know Me

Caetano Veloso

Cifra: Principal
exibições 90.511
Tom: D
Intro:
E|-------------------------------------------7-7----7--------------------------------|
B|--------------------------------------7-10-----10---10-7---------------------7-----|
G|------------7---------------------7-9--------------------9-9-7-9-7-9-7-9-7-9---9-7-|
D|-------7h9----9-9-7---7-------7-9--------------------------------------------------|
A|--7h9---------------9---9-7-9------------------------------------------------------|
E|-----------------------------------------------------------------------------------|

E|-----------------------------------------------------------|
A|-----------------------------------------------------------|
D|----------------7-9-7--------------------------------------|
G|--9-7-9-7-9-7-9-------9-7----------------------------------|
B|-----------------------------------------------------------|
E|-----------------------------------------------------------|
          
           D6/9  G
You don't know me
Bet you'll never get to know me
You don't know me at all
Feel so lonely
The world is spinning round slowly
There's nothing you can show me
From behind the wall

Bm             E
Show me from behind the wall
Show me from behind the wall
Show me from behind the wall

( G  G#  A )

           D6/9  G
You don't know me
Bet you'll never get to know me
You don't know me at all
Feel so lonely
The world is spinning round slowly
There's nothing you can show me
From behind the wall

Bm             E
Show me from behind the wall  *5X*
Why don't you show me from behind the wall

Nasci lá na Bahia de mucamba com feitor
O meu pai dormia em cama, minha mãe no pisadô
Laia ladaia sabadana ave maria

(repete música)

(D6/9  G)
"Eu você nos dois, já temos um passado meu amor
Um violão guardado, aquela flor
e outras mumunhas mais"

Bm             E
Show me from behind the wall *6X*

Laia ladaia sabadana ave maria
Laia ladaia sabadana ave maria
Laia ladaia sabadana ave maria

2X
Eu agradeço ao povo brasileiro
Norte, centro, sul inteiro
Onde reinou o baião
Acordes para:
    Composição: Caetano VelosoColaboração e revisão:
    • tome antunes
    • Gláuber Pontes
    • Igor Ribeiro

    0 comentários

      mostrar mais comentários

      Conseguiu tocar?

      14tocaram0ainda não

      Grave um vídeo tocando You Don't Know Me e mande pra gente!

      00:00 / 00:00
      outros vídeos desta música
      repetirqualidadeautomática
      Outro vídeos desta música
        00:00 / 00:00
        automática
        OK