Cifra Club

Aprenda

El Baile Y El Salón

Cafe Tacuba

Cifra: Principal (violão e guitarra)
tom: D
Intro:
A
Pa pa ru pa pa eu eo, pa pa ru pa pa eu eo
Bm           E        A
Pa pa ru pa pa eu eo, pa pa ru pa pa eu eo

Verso:
A
Nos besamos bailando   

en medio del lugar   
        Bm           E
La música ya iba llegando 
              A
al ultimo compás 

Miradas en silencio 

y quien lo iba pensar   
               Bm           E
que después de este primer baile   
               A
me iba a enamorar, ah, ah         

Coro:
D        C#m       Bm       A
Yo que era un solitario bailando   
D      C#m       Bm
me quede sin hablar   
D         C#m       Bm       A
Mientras tu me fuiste demostrando   
D        C#m       A
que el amor es bailar         

Puente:
A
Pa pa ru pa pa eu eu, pa pa ru pa pa eu eu
Bm           E        A
Pa pa ru pa pa eu eu, pa pa ru pa pa eu eu

Verso:
A
La vida es un gran baile   

y el mundo es un salón   
              Bm         E
y hay muchas parejas bailando   
                 A
a nuestro alrededor      

Y entre toda esta gente   

nos fuimos a encontrar,   
        Bm          E                 A
parecíamos predestinados para así bailar, ah, ah      

Coro:
D        C#m       Bm       A
Yo que era un solitario bailando   
D      C#m       Bm
me quede sin hablar   
D         C#m       Bm       A
Mientras tu me fuiste demostrando   
D        C#m       A
que el amor es bailar         

Solo:
E|-----------------------------------------:
B|-------------------10-10p9---------------:
G|-----------6-7-7/9--------6-7/9--6---6---:
D|-----6-7-9-------------------------9-----:
A|-7-9----------------------------------7--:
E|-----------------------------------------:

E|-7-9-7h9p7---------------------4--7-7------------:
B|-7--------7-9-9-9-10-9-7------5------9-9---------:
G|-7-----------------------9---6----------9-9-6----:
D|----------------------------7-----------------7--:
A|-------------------------------------------------:
E|-------------------------------------------------:

Verso:
D              E           C#m        D
Y ahora que estamos en la pista tu y yo   
            E          C#m        D
no quiero que dejemos de bailar así   
F           G
pues vienen otros ritmos 
  Em            F
que te quieren separar de mi
         Em           F#m          Bm    D
y no pueda abrazarte ni sentir tu cuerpo   
            C#m         C
y vuelva a bailar solo como antes   
 Bm       A
de estar junto a ti   

Puente:
E|-9--9--9--9--x-9--x-9--9--:
B|-10-10-10-10-x-10-x-10-10-:
G|-9--9--9--9--x-9--x-9--9--:
D|--------------------------:
A|--------------------------:
E|--------------------------: x4

Estribillo:
A
Y asi bailando quiero   

que me hagas el amor   
    Bm
de hombre a hombre   
        E                  A
voulez-vous coucher avec moi?

Coro:
D        C#m       Bm       A
Yo que era un solitario bailando   
D      C#m       Bm
me quede sin hablar   
D         C#m       Bm       A
Mientras tu me fuiste demostrando   
D        C#m       A
que el amor es bailar               x2   

Salida:

E|-9--9--9--9--x-9--x-9--9--:
B|-10-10-10-10-x-10-x-10-10-:
G|-9--9--9--9--x-9--x-9--9--:
D|--------------------------:
A|--------------------------:
E|--------------------------: x12
Composição de E. Del Real
Colaboração e revisão:
  • Johan Beltrán
7.434 exibições
    • ½ Tom
    • A
    • Bb
    • B
    • C
    • Db
    • D
    • Eb
    • E
    • F
    • F#
    • G
    • Ab
  • Adicionar à lista

    0 comentários

    Ver todos os comentários

    Conseguiu tocar?

    0 Tocaram 0 Ainda não

    Grave um vídeo tocando El Baile Y El Salón e nos envie!

    00:00 / 00:00
    outros vídeos desta música
    repetir qualidade Automático
    Outros vídeos desta música
    00:00 / 00:00
    Automático

    Cifra Club Pro

    Aproveite o Cifra Club com benefícios exclusivos e sem anúncios
    Cifra Club Pro
    Aproveite o Cifra Club com benefícios exclusivos e sem anúncios
    OK