Cifra Club

Aprenda

¿Será por eso?

Caifanes

Cifra: Principal (violão e guitarra)
tom: E
E||-------|E|---------------|----|E|---------------|----|
B||-------|E|---------------|----|E|---------------|----|
G||-------|E|---------------|----|E|---------------|----|
D||-------|--2E|---------------|-|--LE|---------------|-|
A||-------|--2E|---------------|-|--LE|---------------|-|
E||-------|E|---------------|----|E|---------------|----|


  W                   W                   W
E|E|E|E|---------------|----|E|---------------|----|E|---------------|----|
B|E|E|E|---------------|----|E|---------------|----|E|---------------|----|
G|E|E|E|---------------|----|E|---------------|----|E|---------------|----|
--LE|---------------|-|--LE|---------------|-|--LE|---------------|-|
--LE|---------------|-|--LE|---------------|-|--LE|---------------|-|
E|E|E|---------------|----|E|---------------|----|E|---------------|----|

  W                   W                   W
E|E|E|E|---------------|----|E|---------------|----|E|---------------|----|
B|E|E|E|---------------|----|E|---------------|----|E|---------------|----|
G|E|E|E|---------------|----|E|---------------|----|E|---------------|----|
--LE|---------------|-|--LE|---------------|-|--LE|---------------|-|
--LE|---------------|-|--LE|---------------|-|--LE|---------------|-|
E|E|E|---------------|----|E|---------------|----|E|---------------|----|

  S S S S S S S S S S S S S S S S    S S S S S S S S S S S S S S S S
E|E|---------------|E|---------------|----|E|---------------|E|---------------|----|
B|E|---------------|E|---------------|----|E|---------------|E|---------------|----|
G|E|---------------|E|---------------|----|E|---------------|E|---------------|----|
D|----9---9---9---9---9---9---9---9-|----9---9---9---9---9---9---9---9-|
A|--7---7---7---7---7---7---7---7---|--9---9---9---9---9---9---9---9---|
E|E|---------------|E|---------------|----|E|---------------|E|---------------|----|

  S S S S S S S S S S S S S S S S    S S S S S S S S S S S S S S S S
E|E|---------------|E|---------------|----|E|---------------|E|---------------|----|
B|E|---------------|E|---------------|----|E|---------------|E|---------------|----|
G|E|---------------|E|---------------|----|E|---------------|E|---------------|----|
D|----6---6---6---6---6---6---6---6-|----6---6---6---6---6---6---6---6-|
A|--4---4---4---4---4---4---4---4---|--6---6---6---6---6---6---6---6---|
E|E|---------------|E|---------------|----|E|---------------|E|---------------|----|

  E  S E  E  E  E  E  E.     E  S E  E  E  E  E  E.
E|-------4-----------4------|-------4-----------4------|
B|--4--4----4--5--5-----5---|--4--4----4--5--5-----5---|
G|--6----------6------------|--6----------6------------|
D|E|---------------|-----------|E|---------------|-----------|
A|E|---------------|-----------|E|---------------|-----------|
E|E|---------------|-----------|E|---------------|-----------|

  S S S S S S S S S S S S S S S S    S S S S S S S S S S S S S S S S
E|E|---------------|E|---------------|----|E|---------------|E|---------------|----|
B|E|---------------|E|---------------|----|E|---------------|E|---------------|----|
G|E|---------------|E|---------------|----|E|---------------|E|---------------|----|
D|----9---9---9---9---9---9---9---9-|----9---9---9---9---9---9---9---9-|
A|--7---7---7---7---7---7---7---7---|--9---9---9---9---9---9---9---9---|
E|E|---------------|E|---------------|----|E|---------------|E|---------------|----|

  S S S S S S S S S S S S S S S S    S S S S S S S S S S S S S S S S
E|E|---------------|E|---------------|----|E|---------------|E|---------------|----|
B|E|---------------|E|---------------|----|E|---------------|E|---------------|----|
G|E|---------------|E|---------------|----|E|---------------|E|---------------|----|
D|----6---6---6---6---6---6---6---6-|----6---6---6---6---6---6---6---6-|
A|--4---4---4---4---4---4---4---4---|--6---6---6---6---6---6---6---6---|
E|E|---------------|E|---------------|----|E|---------------|E|---------------|----|

  S S S S S S S S S S S S S S S S    S S S S S S S S S S S S S S S S
E|E|---------------|E|---------------|----|E|---------------|E|---------------|----|
B|E|---------------|E|---------------|----|E|---------------|E|---------------|----|
G|E|---------------|E|---------------|----|E|---------------|E|---------------|----|
D|----9---9---9---9---9---9---9---9-|----9---9---9---9---9---9---9---9-|
A|--7---7---7---7---7---7---7---7---|--9---9---9---9---9---9---9---9---|
E|E|---------------|E|---------------|----|E|---------------|E|---------------|----|

  S S S S S S S S S S S S S S S S    S S S S S S S S S S S S S S S S
E|E|---------------|E|---------------|----|E|---------------|E|---------------|----|
B|E|---------------|E|---------------|----|E|---------------|E|---------------|----|
G|E|---------------|E|---------------|----|E|---------------|E|---------------|----|
D|----6---6---6---6---6---6---6---6-|----6---6---6---6---6---6---6---6-|
A|--4---4---4---4---4---4---4---4---|--6---6---6---6---6---6---6---6---|
E|E|---------------|E|---------------|----|E|---------------|E|---------------|----|

E|-------|-------|-------|-------|-------|
B|-------|-------|-------|-------|-------|
G|-------|-------|-------|-------|-------|
D|-------|-------|-------|-------|-------|
A|-------|-------|-------|-------|-------|
E|-------|-------|-------|-------|-------|

  S S S S S S S S S S S S S S S  S
E|E|---------------|E|---------------|-----|
B|E|---------------|E|---------------|-----|
G|------7-7-6-6-7-7-----7-7-6-6-7s-4-|
D|--5-5-------------5-5--------------|
A|E|---------------|E|---------------|-----|
E|E|---------------|E|---------------|-----|

  S S S S S S S S S S S S S S S  S
E|E|---------------|E|---------------|-----|
B|E|---------------|E|---------------|-----|
G|------9-9-8-8-9-9-----9-9-8-8-9s-6-|
D|--7-7-------------7-7--------------|
A|E|---------------|E|---------------|-----|
E|E|---------------|E|---------------|-----|

  S S S S S S S S S S S S S S S  S
E|E|---------------|E|---------------|-----|
B|E|---------------|E|---------------|-----|
G|------5-5-4-4-5-5-----5-5-4-4-5s-2-|
D|--3-3-------------3-3--------------|
A|E|---------------|E|---------------|-----|
E|E|---------------|E|---------------|-----|

  S S S S S S S S S S S S S S S S
E|E|---------------|E|---------------|----|
B|E|---------------|E|---------------|----|
G|------4-4-3-3-4-4-----5-5-4-4-5-5-|
D|--2-2-------------3-3-------------|
A|E|---------------|E|---------------|----|
E|E|---------------|E|---------------|----|

  S S S S S S S S S S S S S S S  S
E|E|---------------|E|---------------|-----|
B|E|---------------|E|---------------|-----|
G|------7-7-6-6-7-7-----7-7-6-6-7s-4-|
D|--5-5-------------5-5--------------|
A|E|---------------|E|---------------|-----|
E|E|---------------|E|---------------|-----|

  S S S S S S S S S S S S S S S  S
E|E|---------------|E|---------------|-----|
B|E|---------------|E|---------------|-----|
G|------9-9-8-8-9-9-----9-9-8-8-9s-6-|
D|--7-7-------------7-7--------------|
A|E|---------------|E|---------------|-----|
E|E|---------------|E|---------------|-----|

  S S S S S S S S S S S S S S S  S    H        H
E|E|---------------|E|---------------|-----|E|---------------|-----|
B|E|---------------|E|---------------|-----|E|---------------|-----|
G|------5-5-4-4-5-5-----5-5-4-4-5s-2-|E|---------------|-----|
D|--3-3-------------3-3--------------|--2--------1--------|
A|E|---------------|E|---------------|-----|E|---------------|-----|
E|E|---------------|E|---------------|-----|E|---------------|-----|

  S S S S S S S S S S S S S S S S    S S S S S S S S S S S S S S S S
E|E|---------------|E|---------------|----|E|---------------|E|---------------|----|
B|E|---------------|E|---------------|----|E|---------------|E|---------------|----|
G|E|---------------|E|---------------|----|E|---------------|E|---------------|----|
D|----9---9---9---9---9---9---9---9-|----9---9---9---9---9---9---9---9-|
A|--7---7---7---7---7---7---7---7---|--9---9---9---9---9---9---9---9---|
E|E|---------------|E|---------------|----|E|---------------|E|---------------|----|

  S S S S S S S S S S S S S S S S    S S S S S S S S S S S S S S S S
E|E|---------------|E|---------------|----|E|---------------|E|---------------|----|
B|E|---------------|E|---------------|----|E|---------------|E|---------------|----|
G|E|---------------|E|---------------|----|E|---------------|E|---------------|----|
D|----6---6---6---6---6---6---6---6-|----6---6---6---6---6---6---6---6-|
A|--4---4---4---4---4---4---4---4---|--6---6---6---6---6---6---6---6---|
E|E|---------------|E|---------------|----|E|---------------|E|---------------|----|

  S S S S S S S S S S S S S S S S    S S S S S S S S S S S S S S S S
E|E|---------------|E|---------------|----|E|---------------|E|---------------|----|
B|E|---------------|E|---------------|----|E|---------------|E|---------------|----|
G|E|---------------|E|---------------|----|E|---------------|E|---------------|----|
D|----9---9---9---9---9---9---9---9-|----9---9---9---9---9---9---9---9-|
A|--7---7---7---7---7---7---7---7---|--9---9---9---9---9---9---9---9---|
E|E|---------------|E|---------------|----|E|---------------|E|---------------|----|

  S S S S S S S S S S S S S S S S    S S S S S S S S S S S S S S S S
E|E|---------------|E|---------------|----|E|---------------|E|---------------|----|
B|E|---------------|E|---------------|----|E|---------------|E|---------------|----|
G|E|---------------|E|---------------|----|E|---------------|E|---------------|----|
D|----6---6---6---6---6---6---6---6-|----6---6---6---6---6---6---6---6-|
A|--4---4---4---4---4---4---4---4---|--6---6---6---6---6---6---6---6---|
E|E|---------------|E|---------------|----|E|---------------|E|---------------|----|



dudas?????



E|-------|-------|-------|-------|-------|
B|-------|-------|-------|-------|-------|
G|-------|-------|-------|-------|-------|
D|-------|-------|-------|-------|-------|
A|-------|-------|-------|-------|-------|
E|-------|-------|-------|-------|-------|

  S S S S S S S S S S S S S S S  S
E|E|---------------|E|---------------|-----|
B|E|---------------|E|---------------|-----|
G|------7-7-6-6-7-7-----7-7-6-6-7s-4-|
D|--5-5-------------5-5--------------|
A|E|---------------|E|---------------|-----|
E|E|---------------|E|---------------|-----|

  S S S S S S S S S S S S S S S  S
E|E|---------------|E|---------------|-----|
B|E|---------------|E|---------------|-----|
G|------9-9-8-8-9-9-----9-9-8-8-9s-6-|
D|--7-7-------------7-7--------------|
A|E|---------------|E|---------------|-----|
E|E|---------------|E|---------------|-----|

  S S S S S S S S S S S S S S S  S
E|E|---------------|E|---------------|-----|
B|E|---------------|E|---------------|-----|
G|------5-5-4-4-5-5-----5-5-4-4-5s-2-|
D|--3-3-------------3-3--------------|
A|E|---------------|E|---------------|-----|
E|E|---------------|E|---------------|-----|

  S S S S S S S S S S S S S S S S
E|E|---------------|E|---------------|----|
B|E|---------------|E|---------------|----|
G|------4-4-3-3-4-4-----5-5-4-4-5-5-|
D|--2-2-------------3-3-------------|
A|E|---------------|E|---------------|----|
E|E|---------------|E|---------------|----|

  S S S S S S S S S S S S S S S  S
E|E|---------------|E|---------------|-----|
B|E|---------------|E|---------------|-----|
G|------7-7-6-6-7-7-----7-7-6-6-7s-4-|
D|--5-5-------------5-5--------------|
A|E|---------------|E|---------------|-----|
E|E|---------------|E|---------------|-----|

  S S S S S S S S S S S S S S S  S
E|E|---------------|E|---------------|-----|
B|E|---------------|E|---------------|-----|
G|------9-9-8-8-9-9-----9-9-8-8-9s-6-|
D|--7-7-------------7-7--------------|
A|E|---------------|E|---------------|-----|
E|E|---------------|E|---------------|-----|

  S S S S S S S S S S S S S S S  S
E|E|---------------|E|---------------|-----|
B|E|---------------|E|---------------|-----|
G|------5-5-4-4-5-5-----5-5-4-4-5s-2-|
D|--3-3-------------3-3--------------|
A|E|---------------|E|---------------|-----|
E|E|---------------|E|---------------|-----|

  S S S S S S S S S S S S S S S S
E|E|---------------|E|---------------|----|
B|E|---------------|E|---------------|----|
G|------4-4-3-3-4-4-----5-5-4-4-5-5-|
D|--2-2-------------3-3-------------|
A|E|---------------|E|---------------|----|
E|E|---------------|E|---------------|----|

  S S S S S S S S S S S S S S S  S
E|E|---------------|E|---------------|-----|
B|E|---------------|E|---------------|-----|
G|------7-7-6-6-7-7-----7-7-6-6-7s-4-|
D|--5-5-------------5-5--------------|
A|E|---------------|E|---------------|-----|
E|E|---------------|E|---------------|-----|

  S S S S S S S S S S S S S S S  S
E|E|---------------|E|---------------|-----|
B|E|---------------|E|---------------|-----|
G|------9-9-8-8-9-9-----9-9-8-8-9s-6-|
D|--7-7-------------7-7--------------|
A|E|---------------|E|---------------|-----|
E|E|---------------|E|---------------|-----|

  S S S S S S S S S S S S S S S  S
E|E|---------------|E|---------------|-----|
B|E|---------------|E|---------------|-----|
G|------5-5-4-4-5-5-----5-5-4-4-5s-2-|
D|--3-3-------------3-3--------------|
A|E|---------------|E|---------------|-----|
E|E|---------------|E|---------------|-----|

  S S S S S S S S S S S S S S S S
E|E|---------------|E|---------------|----|
B|E|---------------|E|---------------|----|
G|------4-4-3-3-4-4-----5-5-4-4-5-5-|
D|--2-2-------------3-3-------------|
A|E|---------------|E|---------------|----|
E|E|---------------|E|---------------|----|

  S S S S S S S S S S S S S S S  S
E|E|---------------|E|---------------|-----|
B|E|---------------|E|---------------|-----|
G|------7-7-6-6-7-7-----7-7-6-6-7s-4-|
D|--5-5-------------5-5--------------|
A|E|---------------|E|---------------|-----|
E|E|---------------|E|---------------|-----|

  S S S S S S S S S S S S S S S  S
E|E|---------------|E|---------------|-----|
B|E|---------------|E|---------------|-----|
G|------9-9-8-8-9-9-----9-9-8-8-9s-6-|
D|--7-7-------------7-7--------------|
A|E|---------------|E|---------------|-----|
E|E|---------------|E|---------------|-----|

  S S S S S S S S S S S S S S S  S
E|E|---------------|E|---------------|-----|
B|E|---------------|E|---------------|-----|
G|------5-5-4-4-5-5-----5-5-4-4-5s-2-|
D|--3-3-------------3-3--------------|
A|E|---------------|E|---------------|-----|
E|E|---------------|E|---------------|-----|

  S S S S S S S S S S S S S S S S
E|E|---------------|E|---------------|----|
B|E|---------------|E|---------------|----|
G|------4-4-3-3-4-4-----5-5-4-4-5-5-|
D|--2-2-------------3-3-------------|
A|E|---------------|E|---------------|----|
E|E|---------------|E|---------------|----|

  S S S S S S S S S S S S S S S  S
E|E|---------------|E|---------------|-----|
B|E|---------------|E|---------------|-----|
G|------7-7-6-6-7-7-----7-7-6-6-7s-4-|
D|--5-5-------------5-5--------------|
A|E|---------------|E|---------------|-----|
E|E|---------------|E|---------------|-----|

  S S S S S S S S S S S S S S S  S
E|E|---------------|E|---------------|-----|
B|E|---------------|E|---------------|-----|
G|------9-9-8-8-9-9-----9-9-8-8-9s-6-|
D|--7-7-------------7-7--------------|
A|E|---------------|E|---------------|-----|
E|E|---------------|E|---------------|-----|

  S S S S S S S S S S S S S S S  S
E|E|---------------|E|---------------|-----|
B|E|---------------|E|---------------|-----|
G|------5-5-4-4-5-5-----5-5-4-4-5s-2-|
D|--3-3-------------3-3--------------|
A|E|---------------|E|---------------|-----|
E|E|---------------|E|---------------|-----|

  S S S S S S S S S S S S S S S S
E|E|---------------|E|---------------|----|
B|E|---------------|E|---------------|----|
G|------4-4-3-3-4-4-----5-5-4-4-5-5-|
D|--2-2-------------3-3-------------|
A|E|---------------|E|---------------|----|
E|E|---------------|E|---------------|----|

  S S S S S S S S S S S S S S S  S
E|E|---------------|E|---------------|-----|
B|E|---------------|E|---------------|-----|
G|------7-7-6-6-7-7-----7-7-6-6-7s-4-|
D|--5-5-------------5-5--------------|
A|E|---------------|E|---------------|-----|
E|E|---------------|E|---------------|-----|

  S S S S S S S S S S S S S S S  S
E|E|---------------|E|---------------|-----|
B|E|---------------|E|---------------|-----|
G|------9-9-8-8-9-9-----9-9-8-8-9s-6-|
D|--7-7-------------7-7--------------|
A|E|---------------|E|---------------|-----|
E|E|---------------|E|---------------|-----|

  S S S S S S S S S S S S S S S  S    H        H
E|E|---------------|E|---------------|-----|E|---------------|-----|-----------|
B|E|---------------|E|---------------|-----|E|---------------|-----|-----------|
G|------5-5-4-4-5-5-----5-5-4-4-5s-2-|E|---------------|-----|-----------|
D|--3-3-------------3-3--------------|--2--------3--------|-----------|
A|E|---------------|E|---------------|-----|E|---------------|-----|-----------|
E|E|---------------|E|---------------|-----|E|---------------|-----|-----------|

E|-----------|-----------|-----------| |
B|-----------|-----------|-----------| |
G|-----------|-----------|-----------| |
D|-----------|-----------|-----------| |
A|-----------|-----------|-----------| |
E|-----------|-----------|-----------| |




dudas?????



Duration Legend
E|---------------|
W - whole
H - half
Q - quarter
E - 8th
S - 16th
T - 32nd
X - 64th
. - note dotted
|-n-|  - n-tuplets


Tablature Legend
E|---------------|-
L - tied note
x - dead note
g - grace note
(n) - ghost note
> - accentuded note
NH - natural harmonic
AH - artificial harmonic
TH - tapped harmonic
SH - semi harmonic
PH - pitch harmonic
h - hammer on
p - pull off
b - bend
br - bendRelease
pb - preBend
pbr - preBendRelease
brb - bendReleaseBend
n/ - tremolo bar dip
n - tremolo bar dive
-/n - tremolo bar Release up
/n - tremolo bar inverted dip
/n - tremolo bar return
-n - tremolo bar Release down
S - shift slide
s - legato slide
/ -  slide into from below or out of upwards
 -  slide into from above or out of downwards
~ - vibrato
W - wide vibrato
tr - trill
TP - tremolo picking
T - tapping
S - slap
P - pop
< - fade in
^ - brush up
v - brush down
Composição de Saul Hernandez
    • ½ Tom
    • A
    • Bb
    • B
    • C
    • Db
    • D
    • Eb
    • E
    • F
    • F#
    • G
    • Ab
  • Adicionar à lista

    0 comentários

    Ver todos os comentários

    Conseguiu tocar?

    0 Tocaram 0 Ainda não

    Grave um vídeo tocando ¿Será por eso? e nos envie!

    00:00 / 00:00
    Outros vídeos desta música
    Repetir Qualidade Automático
    Outros vídeos desta música
    00:00 / 00:00
    Automático

    Cifra Club Pro

    Aproveite o Cifra Club com benefícios exclusivos e sem anúncios
    Cifra Club Pro
    Aproveite o Cifra Club com benefícios exclusivos e sem anúncios
    OK