Cifra Club

Aprenda

Antes de Que Nos Olviden

Caifanes

Cifra: Principal (violão e guitarra)
tom: G
Intro: 
Guitarra 1: 
Este intro se mantiene durante la parte de la segunda guitarra. 
G|--------------------------------------------------------- 
D|-7-7-7-7-7-5----7-7-7-7-9-11-—7-7-7-7-7-5---7-7-7-7-9-11- 
A|--------------9----------------------------9------------- 
E|--------------------------------------------------------- 

Guitarra 2: 

A 
e|------------------------1-1-------------------------------------- 
B|--3-2-2-2---3-3—2-2-2---2-2-3-3-3-2-2-0-0---0-0-2-2-2-3-3-3-2-2-- 
G|--2-2-2-2---2-2—2-2-2---2-2-2-2-2-2-2-2-2---2-2-2-2-2-2-2-2-2-2-- 
D|--2-2-2-2---2-2—2-2-2---2-2-2-2-2-2-2-2-2---2-2-2-2-2-2-2-2-2-2-- 
A|--0-0-0-0---0-0-0-0-0---0-0-0-0-0-0-0-0-0---0-0-0-0-0-0-0-0-0-0-- 

Guitarra 1: Hace un rasgueo rápido en las notas correspondientes,  
la segunda guitarra acompaña la canción con ritmo y arpegio según la nota. 

A|-7-7-7-7-7-7-7-7-7-7-7-7-7-7-7-7-7-7-7-7-7-7-7-7-7-7-7-7-7-7-7—- Con Palm Mute de fondo. 
E|-5-5-5-5-5-5-5-5-5-5-5-5-5-5-5-5-5-5-5-5-5-5-5-5-5-5-5-5-5-5-5-- 

A                 Amaj7 A7 
Antes de que nos olviden 
           D—-7-7-7-7-7-7-7-- PM 
           A|--5-5-5-5-5-5-5-- 
          D      Dm 
haremos historia 
                     < -- A esta parte regresa la primer guitarra a el rasgueo en “A" 
                   A 
no andaremos de rodillas 
D|-11-11-11-11-11-11-11-11-- PM 
A|-—9-—9—-9-—9-—9-—9—-9--9-- 
F#m 
el alma no tiene la culpa. 

Nota: Los rasgueos de la 1er guitarra se mantienen durante todos los versos. 

A                 Amaj7 A7 
Antes de que nos olviden 
              D    Dm 
rasgaremos paredes 
              A 
y buscaremos restos 
F#m 
no importa si fue nuestra vida. 

Coro: 
Guitarra 1: 
A  E   Bm       G        Em 
Oh oh  oh-oh-oh oh-oh-oh oh 

Guitarra 2: 
  A                     E             Bm                G             E 
e|--9—-9--9--9—-9—-9—-9-4-4-4-4-4-4-4-7-7-7-7-7-7-7-7-7-7-7-7-7-7-7-7-7-7-7-7-7-7-- 
B|-10-10-10-10-10-10-10-5-5-5-5-5-5-5-7-7-7-7-7-7-7-7-8-8-8-8-8-8-8-8-8-8-8-8-8-8-- 
G—-9-—9-—9-—9-—9—-9—-9—4-4-4-4-4-4-4-7-7-7-7-7-7-7-7-7-7-7-7-7-7-7-9-9-9-9-9-9-9-- 

A                 Amaj7 A7 
Antes de que nos olviden 
                    D        Dm 
nos evaporaremos en magueyes 
                      A 
y subiremos hasta el cielo 
F#m 
y bajaremos con la lluvia. 

A                 Amaj7 A7 
Antes de que nos olviden 
            D     Dm 
romperemos jaulas 
                 A 
y gritaremos la fuga 
F#m 
no hay que condenar al alma. 

Coro: x2 
Guitarra 1: 
A  E   Bm       G        Em 
Oh oh  oh-oh-oh oh-oh-oh oh 

Guitarra 2: 
  A                     E             Bm                G             E 
e|--9—-9--9--9—-9—-9—-9-4-4-4-4-4-4-4-7-7-7-7-7-7-7-7-7-7-7-7-7-7-7-7-7-7-7-7-7-7-- 
B|-10-10-10-10-10-10-10-5-5-5-5-5-5-5-7-7-7-7-7-7-7-7-8-8-8-8-8-8-8-8-8-8-8-8-8-8-- 
G—-9-—9-—9-—9-—9—-9—-9—4-4-4-4-4-4-4-7-7-7-7-7-7-7-7-7-7-7-7-7-7-7-9-9-9-9-9-9-9-- 

Solo Guitarra: 
e|--------------------|-------------------------------|| 
B|--------------------|-------------------------------|| 
G|--------------------|-------------------------------|| 
D|----7--7/9-—7h9-6---|-------5----7--9--7--5—4—4h5-4-|| 
A|--------------------|-7--9--------------------------|| 
E|--5-----------------|-------------------------------|| 

e|-------------------------------------|| 
B|-------------------------------------|| 
G|-------------------------------------|| 
D|-------3--5-7-9-7—9/10--9—7h9-7------|| 
A|--5--7-------------------------------|| 
E|-------------------------------------|| 
                              A 
e|----------------------------0--|| 
B|----------------------------2--|| 
G|----------------------------2--|| 
D|----7—-7/9-7-5-4/5-4—4h2-0--2--|| 
A|--9-------------------------0--|| 
E|-------------------------------|| 

A             Amaj7 A7 
Aunque tu me olvides 
                D               Dm 
te pondré un altar de veladoras 
                         A 
y en cada una pondré tu nombre 
F#m 
y cuidaré de tu alma
Composição de Saul Hernández
Colaboração e revisão:
  • Santiago Santos
2.493 exibições
    • ½ Tom
    • A
    • Bb
    • B
    • C
    • Db
    • D
    • Eb
    • E
    • F
    • F#
    • G
    • Ab
  • Adicionar à lista

    0 comentários

    Ver todos os comentários

    Conseguiu tocar?

    0 Tocaram 0 Ainda não

    Grave um vídeo tocando Antes de Que Nos Olviden e nos envie!

    00:00 / 00:00
    Outros vídeos desta música
    Repetir Qualidade Automático
    Outros vídeos desta música
    00:00 / 00:00
    Automático

    Cifra Club Pro

    Aproveite o Cifra Club com benefícios exclusivos e sem anúncios
    Cifra Club Pro
    Aproveite o Cifra Club com benefícios exclusivos e sem anúncios
    OK