Cifra Club

Aprenda

Ayer Me Dijo Un Ave

Caifanes

Cifra: Principal (violão e guitarra)
tom: E
[Intro]

E|---------------9------------------------7~-| x 2
B|------------9----9----9--------------7-----|
G|--------11---------11---11--------9--------|
D|------9-------------------------9----------|
A|-------------------------------------------|
E|---0~------------------------0~------------|

Riff 1
E|------------------------------------|
B|--------------5-----------------5---|
G|--------6--4------------6---4-------|
D|-----6---------------6--------------|
A|---4--------------4-----------------|
E|------------------------------------|

Riff 2 
E|--------------------|
B|------------5-------|
G|---------4----------|
D|------6-------------|
A|---7----------------|
E|0~------------------|

Riff 3
E|--------------------|
B|------------4--5----|
G|---------4----------|
D|------4-------------|
A|---2----------------|
E|--------------------|

Riff 4
E|--------------0-----|
B|-------2---0--------|
G|----2---------------|
D|--------------------|
A|-0------------------|
E|--------------------|

Riff 5
E|-------0-------0----|
B|-----------0--------|
G|----4---------------|
D|--------------------|
A|-2------------------|
E|--------------------|

   C#m                       E
Ayer me dijo un ave que volara
          B             C#m
Por donde no haya ardor
                                  E
Que lo sufrido no resucita en suenios
         B            
Y en versos nunca murio

   A                       B
Que saque el aire de mis ojos
   A                           B
Que abrace el miedo con tus suenios
   A                   B
Que sea un guerrero de sangre
                       C#m
Para que nadie te haga danio

[Solo]

E|------7-------------9--7-------------9--12---16--12-----9---11--|
B|----9----9-------7--------9--------9-----------------9----------|
G|--9--------9--8---------------6---------------------------------|
D|----------------------------------------------------------------|
A|----------------------------------------------------------------|
E|----------------------------------------------------------------|

E|------7-------------9--7-------------9--12--9-----9-------------|
B|----9----9-------7--------9--------9-----------9-----9----------|
G|--9--------9--8---------------6---------------------------------|
D|----------------------------------------------------------------|
A|----------------------------------------------------------------|
E|----------------------------------------------------------------|

   C#m                       E
Ayer me dijo un ave que volara
     B
Hasta desintegrarme
                             E
Que la distancia no es cansancio
   B             C#m  B  A
Es fuerza eres tu

( C#m  B  A )

  B                        C#m  B  A 
Para que nadie te haga danio
Composição de Saul Hernández
Colaboração e revisão:
  • beto castañeda
15.050 exibições
    • ½ Tom
    • A
    • Bb
    • B
    • C
    • Db
    • D
    • Eb
    • E
    • F
    • F#
    • G
    • Ab
  • Adicionar à lista

    0 comentários

    Ver todos os comentários

    Conseguiu tocar?

    0 Tocaram 0 Ainda não

    Grave um vídeo tocando Ayer Me Dijo Un Ave e nos envie!

    00:00 / 00:00
    Outros vídeos desta música
    Repetir Qualidade Automático
    Outros vídeos desta música
    00:00 / 00:00
    Automático

    Cifra Club Pro

    Aproveite o Cifra Club com benefícios exclusivos e sem anúncios
    Cifra Club Pro
    Aproveite o Cifra Club com benefícios exclusivos e sem anúncios
    OK