Cifra Club

Aprenda

De Noche Todos Los Gatos Son Pardos

Caifanes

Cifra: Principal (violão e guitarra)
tom: G
Intro:
E|-------2-3-2-----------2-----------2-3-2-----------5---:
B|-1-3-1-------5---1-3-1---3v--1-3-1-------5---1-3-2---7v:
G|-------------------------------------------------------:
D|-------------------------------------------------------:
A|-------------------------------------------------------:
E|-------------------------------------------------------:
Verso:
C
 Hay perros que no ladran
                    Am
 Pero te lamen los huesos
C
 Hay gatos que maúllan
                      Am
 Hasta exprimir su vientre

B|-8vb---8vbv---8vb-----3--7b-:(2x)
C
 Hay gente que no ladra 
                Am
 Pero te exprime el alma
C
 Hay gente que te odia
                   Am
 Pero te lame las manos, así

Puente:
E|---7-2-5------2-------------2---0-----------------------:
B|----------0-3--------3--0-----2---------2---------------:
G|-------------------2------------------2---------2-------:
D|-----------------4----------------------------2----4----:
A|-----------------------------------4-------4------------:
E|--------------------------------------------------------:

E|---9-4-7---0-4-----0---4---2----------------------------:
B|---------2-------0---2---4------0-4-----0---------------:
G|---------------1-------------1------------1-------------:
D|------------------------------------1-4-----------------:
A|--------------------------------------------------------:
E|--------------------------------------------------------:

Verso:
C
 Hay gente que no arriesga
                    Am
 le tiene miedo a la muerte
C
 hay gatos que no mueren
                     Am
 le dan la vuelta al cielo

Puente:
E|---7-2-5------2-------------2---0-----------------------:
B|----------0-3--------3--0-----2---------2---------------:
G|-------------------2------------------2---------2-------:
D|-----------------4----------------------------2----4----:
A|-----------------------------------4-------4------------:
E|--------------------------------------------------------:

E|---9-4-7---0-4-----0---4---2----------------------------:
B|---------2-------0---2---4------0-4-----0---------------:
G|---------------1-------------1------------1-------------:
D|------------------------------------1-4-----------------:
A|--------------------------------------------------------:
E|--------------------------------------------------------:

Coro:
Em                   F
 De noche todos los gatos son pardos
Em                            F
 Pardo te duermo, pardo te sueño

Solo (se tosa durante el verso):
E|---------4-5-4----------4----------4-5-4-------7--------:
B|---3-5-3-------7--3-5-3---5--3-5-3-------3-3-5---9b^----:
G|--------------------------------------------------------:
D|--------------------------------------------------------:
A|--------------------------------------------------------:
E|--------------------------------------------------------:

E|---------------------------------------------------------:
B|---10^-10/12^-12---9^-10^10/14-14-15-9^-10^-10/12^12-----:
G|---------------------------------------------------------:
D|---------------------------------------------------------:
A|---------------------------------------------------------:
E|---------------------------------------------------------:

E|---------------------------------------------------------:
B|---9^-10^-10/17-17-15-17-21------------------------------:
G|---------------------------------------------------------:
D|---------------------------------------------------------:
A|---------------------------------------------------------:
E|---------------------------------------------------------:

Verso: 
D
 Hay perros que defienden
                Bm
 Hasta clavar colmillos
D
 Perro que ladra
               Bm
 Perro que ladra, perro que ladra no muerde, oh lalarala

Coro:
Em                   F
 De noche todos los gatos son pardos
Em                            F
( Pardo te duermo, pardo te sueño )(3x)
Composição de Saul Hernández
Colaboração e revisão:
  • Johan Beltrán
1.101 exibições
    • ½ Tom
    • A
    • Bb
    • B
    • C
    • Db
    • D
    • Eb
    • E
    • F
    • F#
    • G
    • Ab
  • Adicionar à lista

    0 comentários

    Ver todos os comentários

    Conseguiu tocar?

    0 Tocaram 0 Ainda não

    Grave um vídeo tocando De Noche Todos Los Gatos Son Pardos e nos envie!

    00:00 / 00:00
    Outros vídeos desta música
    Repetir Qualidade Automático
    Outros vídeos desta música
    00:00 / 00:00
    Automático

    Cifra Club Pro

    Aproveite o Cifra Club com benefícios exclusivos e sem anúncios
    Cifra Club Pro
    Aproveite o Cifra Club com benefícios exclusivos e sem anúncios
    OK