Cifra Club

Aprenda

El Año Del Dragón

Caifanes

Cifra: Principal (violão e guitarra)
tom: D
El intro y toda la cancion, es con dos guitarras, una que lleva el ritmo  
con distorcion, y otra que va haciendo unos riff. 

Gtr1 
    
e|-|----|--------------------------------------------------------------| 
B|-|--9-|-9-9--9-9-9-9----9-9--9-9-9-9---9-9--9-9-9-9----9-9--9-9-9-9--| 
G|-|--9-|-9-9--9-9-9-9----9-9--9-9-9-9---9-9--9-9-9-9----9-9--9-9-9-9--| 
D|-|--9-|-9-9--9-9-9-9----9-9--9-9-9-9---9-9--9-9-9-9----9-9--9-9-9-9--| 
A|-|----|--------------------------------------------------------------| 
E|-|----|--------------------------------------------------------------| 

Gtr2 

0:00 

e|-|----|------------|-------------|--------------|--------|  
B|-|-9--|---------9--|--9/12/13-9--|----------9---|--9-----|
Composição de Saul Hernández
Colaboração e revisão:
  • Denio Limeira
734 exibições
    • ½ Tom
    • A
    • Bb
    • B
    • C
    • Db
    • D
    • Eb
    • E
    • F
    • F#
    • G
    • Ab
  • Adicionar à lista

    0 comentários

    Ver todos os comentários

    Conseguiu tocar?

    0 Tocaram 0 Ainda não

    Grave um vídeo tocando El Año Del Dragón e nos envie!

    00:00 / 00:00
    Outros vídeos desta música
    Repetir Qualidade Automático
    Outros vídeos desta música
    00:00 / 00:00
    Automático

    Cifra Club Pro

    Aproveite o Cifra Club com benefícios exclusivos e sem anúncios
    Cifra Club Pro
    Aproveite o Cifra Club com benefícios exclusivos e sem anúncios
    OK