Cifra Club

Aprenda

Hasta Que Dejes de Respirar

Caifanes

Cifra: Principal (violão e guitarra)
tom: Db
Esta cancion esta bien curada, nada mas saque el intro y el solo, 
el intro suena como egipcia o arabe, algo asi, pero esta curada, 
echenle ganas, esta bien facil. 

Intro: 

e|------------------------------ 
B|-------3-5-3------------------ 
G|-2-3-6-------6-2~------------- 
D|------------------------------ 
A|------------------------------ 
E|------------------------------ 

e|------------------------------ 
B|---3---5-3-2------------------ 
G|-2---2-------6-3-2~----------- 
D|------------------------------ 
A|------------------------------ 
E|------------------------------ 

e|------------------------------ 
B|-------3-5-3-6-5~------------- 
G|-2-3-6------------------------ 
D|------------------------------ 
A|------------------------------ 
E|------------------------------ 

e|-------5---------------------- 
B|-----5---6-8-5/--------------- 
G|-2-6-------------------------- 
D|------------------------------ 
A|------------------------------ 
E|------------------------------ 

Este es el solo (tambien esta facilillo), va mas o menos asi: 

e|-----16^------------------------------------- 
B|-11-----11--------14-13-11-10-11------------- 
G|-----------9-10-9----------------9-10-7-8~--- 
D|--------------------------------------------- 
A|--------------------------------------------- 
E|--------------------------------------------- 

e|-----------------------------17-18^-18-17-15-17-15-17-13-15-17-15-13~- 
B|--------------9-10-9/10-9-7-6----------------------------------------- 
G|---------9-10--------------------------------------------------------- 
D|-7-8-7-12------------------------------------------------------------- 
A|---------------------------------------------------------------------- 
E|---------------------------------------------------------------------- 

Eso es todo, esta curadilla la cancion, se la dedico a la sec. #37 T.M. 
a pacheco, julio, davi y por supuesto especialmente a Tanairi, ya saben 
escribanme por dudas o felicitaciones y ponganme 10.
Composição de Saul Hernández
Colaboração e revisão:
  • felipe moda
601 exibições
    • ½ Tom
    • A
    • Bb
    • B
    • C
    • Db
    • D
    • Eb
    • E
    • F
    • F#
    • G
    • Ab
  • Adicionar à lista

    0 comentários

    Ver todos os comentários

    Conseguiu tocar?

    0 Tocaram 0 Ainda não

    Grave um vídeo tocando Hasta Que Dejes de Respirar e nos envie!

    00:00 / 00:00
    Outros vídeos desta música
    Repetir Qualidade Automático
    Outros vídeos desta música
    00:00 / 00:00
    Automático

    Cifra Club Pro

    Aproveite o Cifra Club com benefícios exclusivos e sem anúncios
    Cifra Club Pro
    Aproveite o Cifra Club com benefícios exclusivos e sem anúncios
    OK