Cifra Club

Aprenda

Miercoles de Ceniza

Caifanes

Cifra: Principal (violão e guitarra)
tom: E
Intro:
 
    C#m
E|--------4------------5-4-4--------------------4----------5-4-4v~--|
B|-0--2-4------4p2-0------------4--2p0--0---2-4-----4p2-0-----------|
G|------------------------------------------------------------------|
D|------------------------------------------------------------------|
A|------------------------------------------------------------------|
E|------------------------------------------------------------------|

Verso:

E                             C#m
Te acuerdas cuando jugabas con él?
E                                C#m
Siempre desde los árboles se miraban
E                      C#m
Sólo con él podías hablar
E                     C#m
Sólo con él podías llorar
C              C#m
Ahora es un hueso
C#m
Enterrado

Coro:
     C  A G#m
Olvidado          2x

Ponte:

    C#m
E|--------4------------5-4-4--------------------4----------5-4-4v~--|
B|-0--2-4------4p2-0------------4--2p0--0---2-4-----4p2-0-----------|
G|------------------------------------------------------------------|
D|------------------------------------------------------------------|
A|------------------------------------------------------------------|
E|------------------------------------------------------------------|

Verso:

E                                     C#m
Te acuerdas cuando hablaban de la muerte?
E                                 C#m
Decían que era un futuro interminable
E                                 C#m
Ahora que pasa? Dónde te encuentro?
E                                      C#m
Te acuerdas cuando se convertían en dioses
E                              C#m
Decían que nada los iba a separar
C              C#m
Ahora es un hueso
C#m
Enterrado

Coro:
     C  A  G#m
Olvidado            x2

Esrtribillo:
             C#m  A   G#m
En un miércoles de Ceniza     x3
             C#m  A   G#m
En un miércoles
     C#m A  G#m
Oh, oh, larala     x2
G#m
Ah!

Sólo: C#m  A  G#m

E|-4-4-------4-5-------5-5-4-------5-5-4-------5-5-5--|
B|-----5---5-----5---5-------4---4-------4---4--------|
G|-------6---------6-----------5-----------5----------|
D|----------------------------------------------------|
A|----------------------------------------------------|
E|----------------------------------------------------|

E|-4-------4-5-------5-5-4-------5-5-4-------5-5-5--|
B|---5---5-----5---5-------4---4-------4---4--------|
G|-----6---------6-----------5-----------5----------|
D|--------------------------------------------------|
A|--------------------------------------------------|
E|--------------------------------------------------|

E|-4-------4-5-------5-5-4-------5-5-4-------5-5-5--|
B|---5---5-----5---5-------4---4-------4---4--------|
G|-----6---------6-----------5-----------5----------|
D|--------------------------------------------------|
A|--------------------------------------------------|
E|--------------------------------------------------|

E|-4-------4-5-------5-5-4-------5-5-4v~-|
B|---5---5-----5---5-------4---4---------|
G|-----6---------6-----------5-----------|
D|---------------------------------------|
A|---------------------------------------|
E|---------------------------------------|
Composição de Saul Hernández
Colaboração e revisão:
  • Johan Beltrán
655 exibições
    • ½ Tom
    • A
    • Bb
    • B
    • C
    • Db
    • D
    • Eb
    • E
    • F
    • F#
    • G
    • Ab
  • Adicionar à lista

    0 comentários

    Ver todos os comentários

    Conseguiu tocar?

    0 Tocaram 0 Ainda não

    Grave um vídeo tocando Miercoles de Ceniza e nos envie!

    00:00 / 00:00
    Outros vídeos desta música
    Repetir Qualidade Automático
    Outros vídeos desta música
    00:00 / 00:00
    Automático

    Cifra Club Pro

    Aproveite o Cifra Club com benefícios exclusivos e sem anúncios
    Cifra Club Pro
    Aproveite o Cifra Club com benefícios exclusivos e sem anúncios
    OK