Cifra Club

Nunca Me Caí

Caifanes

Cifra: Versão 3 (violão e guitarra)
tom: D
E|-2-----0-------------------------|
B|-3-----2--| y-despues-2-2-0-2------
G|-2-----2------------2-2-2-2------|
D|-------2------------2-2-2-2------|
A|---------------------------------|
E|---------------------------------|
y si ponen atencion en la intro se oye este riff con otra guitarra:

E|----------------------------------|
B|----------------------------------|
G|--9/11-7-9/11-7/6-6---6-6-4-6-----|
D|----------------------------------|
A|----------------------------------|
E|----------------------------------|

despues de el primer verso este riff:
E|---0-0/2-2------------------|
B|-1---0/3-3------------------|
G|-0---0/2-2------------------|
D|----------------------------|
A|----------------------------|
E|----------------------------|
y para entrar al coro es este riff:
E|-----------------------|
B|-----------------------|
G|-----------------------|
D|-----------------------|
A|-----------------------|
E|--0-3-2-0-5-0----------|
Composição de Alejandro Marcovich / Saul Hernández
    • ½ Tom
    • A
    • Bb
    • B
    • C
    • Db
    • D
    • Eb
    • E
    • F
    • F#
    • G
    • Ab
  • Adicionar à lista

    0 comentários

    Ver todos os comentários

    Conseguiu tocar?

    0 Tocaram 0 Ainda não

    Grave um vídeo tocando Nunca Me Caí e nos envie!

    00:00 / 00:00
    Outros vídeos desta música
    Repetir Qualidade Automático
    Outros vídeos desta música
    00:00 / 00:00
    Automático

    Cifra Club Pro

    Aproveite o Cifra Club com benefícios exclusivos e sem anúncios
    Cifra Club Pro
    Aproveite o Cifra Club com benefícios exclusivos e sem anúncios
    OK