Cifra Club

Aprenda

Para Que No Digas Que No Pienso En Ti

Caifanes

Cifra: Principal (violão e guitarra)
tom: D
INTRO
E|-8------8-8-7----10-7---10-10-8-7-8---------------|
B|---10-10------10------8------------10-------------|
G|--------------------------------------------------|
D|--------------------------------------------------|
A|--------------------------------------------------|
E|--------------------------------------------------|

E|----8-8-7-----------------------------------------|
B|-10------10-8-8-8----10-10-10-8-7-----------------|
G|------------------9---------------9-9-7-7---------|
D|--------------------------------------------------|
A|--------------------------------------------------|
E|--------------------------------------------------|

E|-------12-15-15-15-15-14-12-----------------------|
B|----14-----------------------15-------------------|
G|-14-----------------------------------------------|
D|--------------------------------------------------|
A|--------------------------------------------------|
E|--------------------------------------------------|

D            G D                G
 ANC  BUSCANC   A S FORMAS OCULTAS
D               G  D                  G
 DE UNA MANTARRAYA  CON NEUROB S AUSENTE

E|-10-10-8-8-7-7-8-7-----------------------------------------|
B|-------------------10-8-8-8-7------------------------------|
G|------------------------------9-9-7----------------7-7-9-7-|
D|------------------------------------10-9-9-7-----9--9------|
A|---------------------------------------------10------------|
E|-----------------------------------------------------------|
D            G D                  G
 ANC  BUSCANC   D PTILES CONSCIENTES
D              G    D               G
 DE ACTOS PENSANTES  Y NO CONVENIENTES

A            G                    D      G
 PARA QUE NO DIGAS QUE NO PIENSO EN TI AHAAA
A             G                 Bm   G
 PARA QUE NO DIGAS QUE NO PIENSO EN TI
A            G                    D        G
 PARA QUE NO DIGAS QUE NO PIENSO EN TI NO NO NO NO NO
A             G                 Bm   G
 PARA QUE NO DIGAS QUE NO PIENSO EN TI


E|-8------8-8-7----10-10-10-10-8-7-7-------------------------|
B|---10-10------10-------------------10-10-10-8-7------------|
G|-------------------------------------------------9-7-7-----|
D|-----------------------------------------------------------|
A|-----------------------------------------------------------|
E|-----------------------------------------------------------|

E|--------------------------17-20-20-20-20-19-17-------------|
B|------------------------19---------------------20----------|
G|------7-9-7---7-7-7---19-----------------------------------|
D|-9-11-------11---------------------------------------------|
A|-----------------------------------------------------------|
E|-----------------------------------------------------------|

D               G D                 G
 ANC  ENTD  SED S  OBLICUOS Y AUSENTES
D                G D                   G
 BUSCANC  A  FORMA  DE HACERLOS PD SENTES



E|-19-20-20-20-20-19-22-----------19-20-19-22----------------|
B|----------------------22-20-20--------------22-20-20-------|
G|-----------------------------------------------------------|
D|-----------------------------------------------------------|
A|-----------------------------------------------------------|
E|-----------------------------------------------------------|

D               G  D                      G
 TENGO EN E S OJOS  A E  MUJER QUE ES ETEDA 
D                         G  D                   G
 Y AUN PERDIDA ENTD  SOMBRAS  QUIERO QUE SEA ETERNA


A            G                    D        G
 PARA QUE NO DIGAS QUE NO PIENSO EN TI NO NO NO NO NO
A             G                 Bm   G
 PARA QUE NO DIGAS QUE NO PIENSO EN TI
A            G                    D        G
 PARA QUE NO DIGAS QUE NO PIENSO EN TI NO NO NO NO NO
A             G                Bm   Em
 PARA QUE NO DIGAS QUE NO PIENSO EN TI


  D  E  D
E|--------------------------------------------|
B|----------------10-11-10-----------10-11-10-|
G|-7--9---------9------------------9----------|
D|-------7-8-10-------------7-8-10------------| (x3)
A|--------------------------------------------|
E|--------------------------------------------|

  D  E  D                   E
E|-------------------------------------------|
B|----------------10-11-10-------------------|
G|-7--9---------9----------------------------|
D|-------7-8-10--------------2-2-2-2-2-2-2---|
A|---------------------------2-2-2-2-2-2-2---|
E|---------------------------0-0-0-0-0-0-0---|

A            G                    D        G
 PARA QUE NO DIGAS QUE NO PIENSO EN TI NO NO NO NO NO
A            G                  Bm   G
 PARA QUE NO DIGAS QUE NO PIENSO EN TI AHAAA
A            G                   D        G
 PARA QUE NO DIGAS QUE NO PIENSO EN TI NO NO NO NO NO
A            G                  Bm  Em
 PARA QUE NO DIGAS QUE NO PIENSO EN TI
A            G                  Bm   (sin guitarra)
 PARA QUE NO DIGAS QUE NO PIENSO EN TI AHAAA

E|----------------------|
B|------------10-11-10--|
G|----------9-----------|
D|---7-8-10-------------| (x3)
A|----------------------|
E|----------------------|

E|----------------------|
B|------------10-10-----|
G|----------9-------9---|
D|---7-8-10-----------7-|
A|----------------------|
E|----------------------|
Composição de Saul Hernández
2 exibições
    • ½ Tom
    • A
    • Bb
    • B
    • C
    • Db
    • D
    • Eb
    • E
    • F
    • F#
    • G
    • Ab
  • Adicionar à lista

    0 comentários

    Ver todos os comentários

    Conseguiu tocar?

    0 Tocaram 0 Ainda não

    Grave um vídeo tocando Para Que No Digas Que No Pienso En Ti e nos envie!

    00:00 / 00:00
    Outros vídeos desta música
    Repetir Qualidade Automático
    Outros vídeos desta música
    00:00 / 00:00
    Automático

    Cifra Club Pro

    Aproveite o Cifra Club com benefícios exclusivos e sem anúncios
    Cifra Club Pro
    Aproveite o Cifra Club com benefícios exclusivos e sem anúncios
    OK