Cifra Club

Aprenda

Na Coxa

Cainã (Morador do Mato)

Cifra: Principal (violão e guitarra)
tom: A
Intro:

E|--------------------------------------------------------------------
B|--------------------------------------------------------------------
G|--------------------------------------------------------------------
D|-----------------------------5--7-----------------------------------
A|--7--7--x--x--5--7--7--x--x--------7--7--x--x--5--7--7--x--x--7-7-7-
E|--------------------------------------------------------------------

Riff:

E|--------------------------------------------|-------------------------------------------------------------
B|--------------------------------------------|-------------------------------------------------------------
G|------------------7-------------7-----------|----------------------7--9h7-----7---------------------------
D|--------5--7--7/9------5----7/9----9/7--5---|--------5--5--7--7/9----------9-----9--7---8h7---------------
A|--7--7---------------7----------------------|--7--7------------------------------------------10--9--5h7---
E|--------------------------------------------|-------------------------------------------------------------


E
Me causa insegurança
A
E não decido um passo
E
Sequer tenho esperança
A
De deixar de ser

E
Me causa estranheza
A
Continuar sendo assim
E
Me enganando nas sextas
A
Mentindo pra mim

C7M
Me cativa um sorriso
D11
Me carrega além

E
Me calo umas noites
A
Procuro no outro dia
E
Descarto umas chances
A
Por velha teimosia

E
Me canta uma canção
A
E me faz esquecer
E
E parar de ligar
A
E deixar de saber

C7M
Me cativa um sorriso
D11
Me carrega além

C7M
Me cala a boca
D11
Me conta outra
C7M
Me tira a roupa
D11
E me olha, e me molha, e me olha e me molha

C7M
Me cala a boca
D11
Me conta outra
C7M
Me tira a roupa
D11
E me olha, e me olha, e me olha, e me olha
Composição de Cainã
Colaboração e revisão:
  • Cainã Morellato
69 exibições
    • ½ Tom
    • A
    • Bb
    • B
    • C
    • Db
    • D
    • Eb
    • E
    • F
    • F#
    • G
    • Ab
  • Adicionar à lista

    0 comentários

    Ver todos os comentários

    Conseguiu tocar?

    0 Tocaram 0 Ainda não

    Grave um vídeo tocando Na Coxa e nos envie!

    00:00 / 00:00
    outros vídeos desta música
    repetir qualidade Automático
    Outros vídeos desta música
    00:00 / 00:00
    Automático

    Cifra Club Pro

    Aproveite o Cifra Club com benefícios exclusivos e sem anúncios
    Cifra Club Pro
    Aproveite o Cifra Club com benefícios exclusivos e sem anúncios
    OK