Cifra Club

Tudo Azul

Cajamanga

Cifra: Principal (violão e guitarra)
tom: Bb
Eu nao fiz a musica inteira pq nao precisa. ela repete as partes....


Tudo Azul (Trilha do Filme "Surf Adventures")


                                Intro: Solo 1
intro: G D F G C
(abuse dos "power chords", fica maneiro...)

Solo 1  () = Harmônica

e|-(19)-17----------------------(19)-|
B|---------15----14------16----------|
G|-------------15---15-17----17------| 
D|-----------------------------------|
A|-----------------------------------|
E|-----------------------------------|



Verso1:
G(pm)       Em(pm)                       pm = palm muted (abafamento)
Tudo azul, todo mundo nu
F         D 
No Brasil sol de norte a sul 
G(pm)     Em(pm)
Tudo bem, tudo zen, meu bem 
F       D
Tudo sem força e direção 

Refrao:
F                A         
Nós somos muitos, não somos fracos 
D                    Ab      G
Somos sozinhos nessa multidão 

         Em           A 
Nós somos só um coração
F              G             C 
Sangrando pelo sonho de viver 

Repete verso1

ponte:      (tocar tipo reggae "puxando" somente as cordas 1,2 e 3)
            (na 2ª vez tocar tipo punk-rock mesmo... ) 
         Bb              C
Eu nunca fui o rei do baião
         Bb                C
Nem sei fazer chover no sertão

verso2:
          A            E 
Sou flagelado da paixão
     F          G 
Retirante do amor
        F     G        C
Desempregado do coração 

Repete verso1

Repete Refrao

Repete ponte com distorcao

repete verso2

final

 base = (G D F G C)
e|-(19)-17----------------------(19)-|
B|---------15----14------16----------|
G|-------------15---15-17----17------|  SOLO 1 
D|-----------------------------------|  
A|-----------------------------------|
E|-----------------------------------|

 base = (G D F G A E F G C)
e|-(19)-17------------------------------(21)-----------------(19)/21-----|
B|---------15----14------16-------18------------14------16---------------|
G|-------------15---15-17----17-19----19------15---15-17---17------------|  SOLO 2
D|-----------------------------------------------------------------------|
A|-----------------------------------------------------------------------|
E|-----------------------------------------------------------------------|




Correção: Maurício Santiago
00:00 / 00:00
Outros vídeos desta música
Repetir
Outros vídeos desta música
Compositor não encontrado.
30.627 exibições
    • ½ Tom
    • A
    • Bb
    • B
    • C
    • Db
    • D
    • Eb
    • E
    • F
    • F#
    • G
    • Ab
  • Adicionar à lista

    0 comentários

    Ver todos os comentários

    Entre para oCifra Club PRO

    Tenha acesso a benefícios exclusivos no App e no Site

    • Chega de anúncios

    • Prioridade de compra em lançamentos

    • Mais recursos no app do Afinador

    • Atendimento Prioritário

    • Descontos nos produtos Cifra Club

    • Ajude a produzir mais conteúdo

    00:00 / 00:00

    Cifra Club Pro

    Aproveite o Cifra Club com benefícios exclusivos e sem anúncios
    Cifra Club Pro
    Aproveite o Cifra Club com benefícios exclusivos e sem anúncios
    OK