Enviar cifraEntrar

Por que tocou meu coração?

Calcinha Preta

Cifra: Principal
exibições 39.699
Tom: D
(intro) F#  G#  C#  D#m  Fm  C#  G#  A#  A#m G# 

C#        G#/C        A#m
Por que tocou meu coração
       A#m/G#      F#
Mim deixar em suas mãos
            C#/F
Mim diz pra onde foi
           D#m         G#
Que eu não sei o que fazer
C#      G#/C        A#m
Você chegou e mim ganhou
      A#m/G#           F#
Nunca fui de ninguém assim
            C#/F
Mim diz pra onde foi
          D#m         G#
Que eu te quero outra vez

(refrão)
C#         D#m           G#
Eu preciso te encontrar
         C#      Cm    A#m
Com você quero fica....r
              D#m
Eu não vejo a hora de
  F#         G#
Poder te abraçar

C#         D#m           G#
Eu preciso te encontrar
         C#      Cm    A#m
Com você quero fica....r
              D#m
Eu não vejo a hora de
  F#         G#     F# G#
Poder te abraçar

C#        G#/C        A#m
Por que tocou meu coração
       A#m/G#      F#
Mim deixar em suas mãos
            C#/F
Mim diz pra onde foi
           D#m         G#
Que eu não sei o que fazer
C#      G#/C        A#m
Você chegou e mim ganhou
      A#m/G#           F#
Nunca fui de ninguém assim
            C#/F
Mim diz pra onde foi
          D#m         G#
Que eu te quero outra vez

(refrão)
C#         D#m           G#
Eu preciso te encontrar
         C#      Cm    A#m
Com você quero fica....r
              D#m
Eu não vejo a hora de
  F#         G#
Poder te abraçar

C#         D#m           G#
Eu preciso te encontrar
         C#      Cm    A#m
Com você quero fica....r
              D#m
Eu não vejo a hora de
  F#         G#     D#m Fm
Poder te abraçar

F#           G#
Saiba que só seu amor
        C#     Cm    A#m
que não quero te perder
        D#m
que não há amor no mundo
    F#        G#
não há amor maior

(refrão)
C#         D#m           G#
Eu preciso te encontrar
         C#      Cm    A#m
Com você quero fica....r
              D#m
Eu não vejo a hora de
  F#         G#
Poder te abraçar

C#         D#m           G#
Eu preciso te encontrar
         C#      Cm    A#m
Com você quero fica....r
              D#m
Eu não vejo a hora de
  F#         G#
Poder te abraçar

(solo)
C#  G#/C  A#m  A#m/G#  F#  C#/F  D#m  G#
C#  G#/C  A#m  A#m/G#  F#  C#/F  D#m  G#  D#m  Fm


E|---------------------------------------------------------------------------------------4/6-4-
B|---2-4-4/6-4-2-1-2~---1-2-1-------2-2/4-2~--4/6-4--2-2/4--2-1/2~----2--4-4/6-4-6-7-6-4-------
G|-1-------------------------1-1/3~-------------------------------1----------------------------
D|---------------------------------------------------------------------------------------------
A|---------------------------------------------------------------------------------------------
E|---------------------------------------------------------------------------------------------


E|--2-1-2-1---------------4/6-4-1/2-1---------------------1-2-4-4/6~---------------------------
B|----------2-----2-2/4-2~-------------2------------1-2-4--------------------------------------
G|------------1/3-------------------------1/3~--1-3--------------------------------------------
D|---------------------------------------------------------------------------------------------
A|---------------------------------------------------------------------------------------------
E|---------------------------------------------------------------------------------------------


F#           G#
Saiba que só seu amor
        C#     Cm    A#m
que não quero te perder
        D#m
que não há amor no mundo
    F#        G#    G#  A
não há amor maior

 D         Em           A
Eu preciso te encontrar
         D      C#m    Bm
Com você quero fica....r
              Em
Eu não vejo a hora de
  G          A
Poder te abraçar

D          Em           A
Eu preciso te encontrar
         D      C#m    Bm
Com você quero fica....r
              Em
Eu não vejo a hora de
  G           A
Poder te abraçar

D          Em           A
Eu preciso te encontrar
         D      C#m    Bm
Com você quero fica....r
              Em
Eu não vejo a hora de
   D  C#m     Bm    D  Em   F#m
Poder te abraçar
  • 1
  • 2
  • 3
  • 4
  • 5
  • 6
  • 7
  • 8
  • 9
  • 10
  • 11
  • 12
    Acordes para:
      Composição: Gilton Andrade / Crystiam LimaColaboração e revisão:
      • Valdeir_GTi
      • Dennys

      0 comentários

        mostrar mais comentários

        Conseguiu tocar?

        0tocaram0ainda não

        Grave um vídeo tocando Por que tocou meu coração? e mande pra gente!

        00:00 / 00:00
        outros vídeos desta música
        repetirqualidadeautomática
        • automática
        Outro vídeos desta música
          00:00 / 00:00
          automática
          • automática
          Acordes para:violão e guitarra
          dificuldadeexibiçõescontribuições
          fecharplay/pause subir/descer velocidade
            acordes
            fechar
            OK
            Feedback