Cifra Club

Rocanroles Sin Destino

Callejeros

Cifra: Versão 5 (violão e guitarra)
tom: F
NOTA: donde estan los corchetes "[]" en cada estrofa
es donde entra cada tablatura

E|-1-|-0-|-3-|-8-|-1-|-5-|-1-|-6-|-3-|-5-|
B|-1-|-1-|-5-|-8-|-3-|-6-|-3-|-6-|-3-|-5-|
G|-2-|-0-|-5-|-9-|-2-|-7-|-3-|-7-|-3-|-5-|
D|-3-|-2-|-5-| 10-|-0-|-7-|-3-|-8-|-5-|-7-|
A|-3-|-3-|-3-| 10-|-x-|-5-|-1-|-8-|-5-|-7-|
E|-1-|-x-|-x-|-8-|-x-|-x-|-x-|-6-|-3-|-5-|
 | F | C | C | C | Dm| Dm| A#| A#| Gm| Am|


F
Imagenes de subir, imagenes de soñar
                    C
Llenando un lugar vacio
Dm                              C
Cientos de momentos frios y soledad

F
Siempre relojeando al cielo
                      C
Desde el suelo y no arriba
Dm         A#
Sin saber, si creer
Gm                                 C
Si esta eleccion de vida valdria mi fe
A#
Si este tren, solo de ida
               C
Me daria un lugar
Gm
Y el corazon me aturdia con eso
        A#
De que las paredes y el techo
                    C
Se van si hay libertad

---ACA-TERE NA-EL-PRINCIPIO-DE-G  O-GUITARRA---

      Am             Gm
Y ese [dro]gadicto alarido
      Am                       A#
Cuando se quiebran todos los sentidos
             C
Con una cancion


E|--5~-6-6-|-5~-1h3p1--------|
B|---------|----------1h3p1~-|
G|---------|-----------------|
D|---------|-----------------|
A|---------|-----------------|
E|---------|-----------------|

             Am                          Gm
Fue el que jugo[]todo el tiempo en mi mente
    Am                         A#
Como abogado y libero para siempre
                F
A esta ciega razon...

E|--5~-6-6-|-5~-1h3p1--------|
B|---------|----------1h3p1~-|
G|---------|-----------------|
D|---------|-----------------|
A|---------|-----------------|
E|---------|-----------------|

      C
...de viv[ir].
E|--6-5-3-5-3-1-3-1-0----|
B|--------------------3~-|
G|-----------------------|
D|-----------------------|
A|-----------------------|
E|-----------------------|

     A#
De tratar de lo[grar],

E|----0-1---5-3~-|
B|--3-----3------|
G|---------------|
D|---------------|
A|---------------|
E|---------------|


           Gm
Ser la re[van]cha de todos aquellos
             A#
Que la pelearon al lado, de cerca o muy lejos
   C
y nooo

E|-6~-3h6p3~-|-6~-6-6-6-6-6-5-8~-|
B|-----------|-------------------|
G|-----------|-------------------|
D|-----------|-------------------|
A|-----------|-------------------|
E|-----------|-------------------|


                        F   (Gm Am Gm)
[pu]dieron reir sin llorar.

E|-8-8-8-8-8-6-5-1~-|-1s3-3s5-3h5p3-|
B|------------------|---------------|
G|------------------|---------------|
D|------------------|---------------|
A|------------------|---------------|
E|------------------|---------------|

         F
Te llaman [si] convocas, te llaman si pagas bien
                    C
O si le tiras la alfombra

E|-1~-1-1-0-------------0-3~-5-3-3h5p3p1-|
B|----------3-1~----1-3------------------|
G|---------------2-3---------------------|
D|---------------------------------------|
A|---------------------------------------|
E|---------------------------------------|

Dm
Te[]hacen caminar entre sombras
            A#
Y no te escucharon ni hablar.


E|--------|---0-1-0-1-1p0h1-0-------|
B|-3-1-3~-|-3-----------------3-1---|
G|--------|-------------------------|
D|--------|-------------------------|
A|--------|-------------------------|
E|--------|-------------------------|

 F                                       C
Muchas bandas mueren[ sin] el apoyo de estos

E|----------0-3~-5-3-3h5p3p1-|
B|-3-1~-1-3------------------|
G|---------------------------|
D|---------------------------|
A|---------------------------|
E|---------------------------|

 A#
[Tan]tos mediocres sin clase
                    Gm                Dm             C
Que te arman 'El ranking de los elegidos del nunca jamas'.


E|-------------------0-------|
B|-3~-1-3~-3~-1-3~-3---3-1---|
G|---------------------------|
D|---------------------------|
A|---------------------------|
E|---------------------------|

   A#                                       F
Y[ ahi] caes en la cuenta de que lo que cuenta
               C                 Dm
es lo que se siente en la calle, en la gente
     A#
Y no en los inventos

E|-6~-6-6-5-3-1~~-0----------1~-----------|
B|------------------3-1-3-1-----0-3-1-3-1-|
G|----------------------------------------|
D|----------------------------------------|
A|----------------------------------------|
E|----------------------------------------|

  F                C
[de ]estos incoherentes...
A#        F         C
Para no dejarte llegar.

E|---------------------------|
B|-6-6-6-3h5h6-5~-3~-1~-3~---|
G|---------------------------|
D|---------------------------|
A|---------------------------|
E|---------------------------|

      Am                 Gm
Y ese es[truen]do casi divino
            Am                  A#
Cuando se quiebran todos los sentidos
             C
Con un rocanrol

E|--5~-6-6-|-5~-1h3p1--------|
B|---------|----------1h3p1~-|
G|---------|-----------------|
D|---------|-----------------|
A|---------|-----------------|
E|---------|-----------------|

             Am                          Gm
Fue el que jugo[]todo el tiempo en mi mente
    Am                         A#
Como abogado y libero para siempre
                F
A esta ciega razon...

E|--5~-6-6-|-5~-1h3p1--------|
B|---------|----------1h3p1~-|
G|---------|-----------------|
D|---------|-----------------|
A|---------|-----------------|
E|---------|-----------------|

      C
...de viv[ir].
E|--6-5-3-5-3-1-3-1-0----|
B|--------------------3~-|
G|-----------------------|
D|-----------------------|
A|-----------------------|
E|-----------------------|

     A#
De tratar de lo[grar],

E|----0-1---5-3~-|
B|--3-----3------|
G|---------------|
D|---------------|
A|---------------|
E|---------------|


           Gm
Ser la re[van]cha de todos aquellos
             A#
Que la pelearon al lado, de cerca o muy lejos
   C
y nooo

E|-6~-3h6p3~-|-6~-6-6-6-6-6-5-8~-|
B|-----------|-------------------|
G|-----------|-------------------|
D|-----------|-------------------|
A|-----------|-------------------|
E|-----------|-------------------|


                        F   (Gm Am Gm)
[pu]dieron reir sin llorar.

E|-8-8-8-8-8-6-5-1~-|-1s3-3s5-3h5p3-|
B|------------------|---------------|
G|------------------|---------------|
D|------------------|---------------|
A|------------------|---------------|
E|------------------|---------------|

Final
E|-1~-1-1-0------|-1~-3-3-1-0-1-|-1~~|
B|----------3-1~-|--------------|----|
G|---------------|--------------|----|
D|---------------|--------------|----|
A|---------------|--------------|----|
E|---------------|--------------|----|

Esta bastante bien, mi hermano dice que si lo tocas en el saxo
hay unas partes donde "frutea" pero esta bastante cerca,
de todos modos para la guitarra esta barbaro
Aguante lacuerda loco!!!!
a ver cuando permiten poner temas para saxo
00:00 / 00:00
Outros vídeos desta música
Repetir
Outros vídeos desta música
Composição de Callejeros
97 exibições
    • ½ Tom
    • A
    • Bb
    • B
    • C
    • Db
    • D
    • Eb
    • E
    • F
    • F#
    • G
    • Ab
  • Adicionar à lista

    0 comentários

    Ver todos os comentários

    Entre para oCifra Club PRO

    Tenha acesso a benefícios exclusivos no App e no Site

    • Chega de anúncios

    • Prioridade de compra em lançamentos

    • Mais recursos no app do Afinador

    • Atendimento Prioritário

    • Descontos nos produtos Cifra Club

    • Ajude a produzir mais conteúdo

    00:00 / 00:00

    Cifra Club Pro

    Aproveite o Cifra Club com benefícios exclusivos e sem anúncios
    Cifra Club Pro
    Aproveite o Cifra Club com benefícios exclusivos e sem anúncios
    OK