Cifra Club

Reverso Huidobro

Camila Moreno

Cifra: Principal (violão e guitarra)
tom: A
Frase 1
E|--------0----------|--------0--------------| e|-------0----------|
B|-----0---------0---|-----0-----------------| B|-----0--------0---|
G|---9---------9---9-|---9---------9---------| G|---6--------6---6-|
D|-------------------|-----------------------| D|------------------|x2
A|-------10----------|-------10------10/12/7-| A|-------7----------|
E|-0-------------0---|-0---------------------| E|-0------------0---|

  Frase 1 x2

  El cielo tiene miedo de la                      noche
  Cuando el mar hace dormir los                   barcos
  Cuando la muerte se nutre en los rin...         ...cones
  Y la voz del silencio se lle...                 ...na


Frase 2
E|--------0---------------------0-------------| e|-------0----------|
B|-----0----------------------0---------------| B|-----0--------0---|
G|---9---------9------------8--------8--------| G|---6--------6---6-|
D|--------------------------------------------| D|------------------|x2
A|-------10------10/12/9--------9------9/12/7-| A|-------7----------|
E|-0----------------------0-------------------| E|-0------------0---|

  de vampiros


Frase 3
E|--------0----------| |---------0-----------|
B|-----0---------0---| |------0---------0----|
G|---9---------9---9-| |---11--------11---11-|
D|-------------------| x2   |---------------------|x2
A|-------11----------| |--------12-----------|
E|-0-------------0---| |-0--------------0----|

   Entonces                  alumbramos

Frase 4
E|--------0----------| |---------------------|
B|-----0---------0---| |-----0------0------0-|
G|---9---------9---9-| |---0------0------0---|
D|-------------------| x2   |---------------------|
A|-------11----------| |-5------4------3-----|
E|-0-------------0---| |---------------------|
   un fuego                  bajo el orácu...


Frase 5
E|-------0----------| e|-------0----------|
B|-----0--------0---| B|-----0--------0---|
G|---4--------4---4-| G|---6--------6---6-|
D|------------------| x2                D|------------------|x2
A|-------2----------| A|-------4----------|
E|-0------------0---| E|-0------------0---|
  ...lo

  Para aplacar la                       suerte
  Y alimentamos los milagros de la      soledad
  Con nuestra propia                    carne
  Con nuestra propia                    carne


Rasgueo:

  1  2 3  4    5
e|xxxx-xx-xxxx-xxx|
B|xxxx-xx-xxxx-xxx|
G|4446-77-3334-444|
D|0000-00-0000-000|
A|2224-55-1112-222|
E|0000-00-0000-000|

  1      2     3    4         5
Entonces en el cementerio sellado
1 2 3 4 5

      1   23   4    5
Y hermoso como un eclipse
1 2 3 4 5

1                 A             E
La rosa rompe sus lazos y florece
   1         A            1
florece al reverso de la muerte
2 3 4 5

1 2 3 4 5

1                 A             E
La rosa rompe sus lazos y florece
   1         A            1
florece al reverso de la muerte
2 3 4 5
1 2 3 4 5
1 2 3 4 5
1 2 3
00:00 / 00:00
Outros vídeos desta música
Repetir
Outros vídeos desta música
Compositor não encontrado.
    • ½ Tom
    • A
    • Bb
    • B
    • C
    • Db
    • D
    • Eb
    • E
    • F
    • F#
    • G
    • Ab
  • Adicionar à lista

    0 comentários

    Ver todos os comentários

    Conseguiu tocar?

    0 Tocaram 0 Ainda não

    Grave um vídeo tocando Reverso Huidobro e nos envie!

    Entre para oCifra Club PRO

    Tenha acesso a benefícios exclusivos no App e no Site

    • Chega de anúncios

    • Prioridade de compra em lançamentos

    • Mais recursos no app do Afinador

    • Atendimento Prioritário

    • Descontos nos produtos Cifra Club

    • Ajude a produzir mais conteúdo

    00:00 / 00:00

    Cifra Club Pro

    Aproveite o Cifra Club com benefícios exclusivos e sem anúncios
    Cifra Club Pro
    Aproveite o Cifra Club com benefícios exclusivos e sem anúncios
    OK