Cifra Club

Hino da Campanha da Fraternidade 2018

Campanha da Fraternidade

Cifra: Principal (violão e guitarra)
Tom: Cm
Parte 1 de 4

    Cm      Fm     Bb          D#   G#
E|----8-8-8-8-----------6-6-6-6----------|
B|------------9p8---------------8p6------|
G|----------------10~---------------8~---|
D|---------------------------------------|
A|---------------------------------------|
E|---------------------------------------|

Parte 2 de 4

              Dm5-/7 G7     Cm       C7
E|----4-4-4-4-3--------------------------|
B|--------------6-4-3-4-6-6/8~~----------|
G|---------------------------------------|
D|---------------------------------------|
A|---------------------------------------|
E|---------------------------------------|

Parte 3 de 4

            Fm    Bb          D#    G#
E|----8-8-8-8-----------6-6-6-6----------|
B|------------9p8---------------8p6------|
G|----------------10~---------------8~---|
D|---------------------------------------|
A|---------------------------------------|
E|---------------------------------------|

Parte 2 de 4

           Dm5-/7   G7     Cm
E|----4-4-4-4-3--------------------------|
B|--------------6-4-3--------------------|
G|--------------------5-4-5~-------------|
D|---------------------------------------|
A|---------------------------------------|
E|---------------------------------------|


(G7)       Cm                         Fm
01 - Neste tempo quaresmal, ó Deus da vida
         G7                  Cm
A tua Igreja se propõe a superar
     C7                          Fm
A violência que está nas mãos do mundo
         G7                       C
E sai do íntimo de quem não sabe amar

(G7)    C          Am        Dm
Fraternidade é superar a violência
        F             G7               C
É derramar, em vez de sangue, mais perdão
        Gm           C7              F
É fermentar na humanidade o amor fraterno
           Em           Dm           C    F
Pois Jesus disse que "somos todos irmãos"
           Em           Dm           Cm   (Bb  G#   G7)
Pois Jesus disse que "somos todos irmãos"

(G7)          Cm                       Fm
02 - Quem plantar a paz e o bem pelo caminho
       G7                        Cm
E cultivá-los com carinho e proteção
           C7                    Fm
Não mais verá a violência em sua terra
        G7                       C
Levar a paz é compromisso do cristão

(G7)        Cm                         Fm
03 - A exclusão que leva à morte tanta gente
         G7                    Cm
Corrompe vidas e destrói a criação
            C7                          Fm
"Basta de guerra e violência, ó Deus clemente"
       G7                        C
É o clamor dos filhos teus em oração

(G7)          Cm                          Fm
04 - Venha a nós, Senhor, teu Reino de justiça
         G7                    Cm
Pleno de paz, de harmonia e unidade
         C7                         Fm
Sonhamos ver um novo céu e uma nova terra
         G7                    C
Todos na roda da feliz fraternidade

(G7)        Cm                 Fm
05 - Tua Igreja tem o coração aberto
        G7                   Cm
E nos ensina o amor a cada irmão
           C7                     Fm
Em Jesus Cristo, acolhe, ama e perdoa
           G7                         C
Quem fez o mal, caiu em si, e quer perdão
exibições 41.856
Acordes para:
    Composição: Frei Zilmar Augusto Colaboração e revisão:

    0 comentários

    mostrar mais comentários

    Conseguiu tocar?

    1 tocaram 6 ainda não

    Grave um vídeo tocando Hino da Campanha da Fraternidade 2018 e mande pra gente!

    00:00 / 00:00
    outros vídeos desta música
    repetir qualidade Automático
    Outros vídeos desta música
    00:00 / 00:00
    Automático
    OK