Cifra Club

Aprenda

Rejubila-te, Cidade Santa!

Campanha da Fraternidade

Cifra: Principal (violão e guitarra)
Tom: C
Intro:

             C             Em
E|---------8-7----8-7----7------|
B|-----8-8-----10-----10---8----|
G|------------------------------|
D|------------------------------|
A|------------------------------|
E|------------------------------|

             F        F/G  C
E|---------------------7-8------|
B|-----8-8-10-8-6-8-10----------|
G|------------------------------|
D|------------------------------|
A|------------------------------|
E|------------------------------|

     C               Em
Rejubila-te, Cidade Santa,
         F                   C
Eis que vem o Rei que nos remiu.
    Dm                 C
Exultemos juntos de alegria -
      G4              G
Nova Páscoa Ele nos abriu!


          G7                   C
1. Já se cumpre a grande profecia:
        G              C
vem chegando a libertação!
      B7                  Em
O Pastor que guia nossas vidas
        D7             G4 G
vem nos dar um novo coração.

Riff:

         F        F/G  C
E|-----------------7-8----------|
B|-----10-8-6-8-10--------------|
G|------------------------------|
D|------------------------------|
A|------------------------------|
E|------------------------------|

        G7              C
2. Escutemos a Palavra viva
         G                 C
que nos leva para o rumo certo.
      B7                   Em
É o Deus que vai ao nosso lado
       D7             G4 G
conduzindo-nos pelo deserto.

Riff:

         F        F/G  C
E|-----------------7-8----------|
B|-----10-8-6-8-10--------------|
G|------------------------------|
D|------------------------------|
A|------------------------------|
E|------------------------------|

         G7                C
3. Despertemo-nos pro Novo Dia
       G                C
que expulsa toda escuridão.
     B7               Em
Ó Jerusalém, Cidade Santa,
     D7              G4 G
confiemo-nos no seu perdão.

Riff:

         F        F/G  C
E|-----------------7-8----------|
B|-----10-8-6-8-10--------------|
G|------------------------------|
D|------------------------------|
A|------------------------------|
E|------------------------------|
Colaboração e revisão:
  • Helio Porto
  • Rafael Costa
7.892 exibições
    • ½ Tom
    • A
    • Bb
    • B
    • C
    • Db
    • D
    • Eb
    • E
    • F
    • F#
    • G
    • Ab
  • Adicionar à lista

    0 comentários

    Mostrar mais comentários

    Conseguiu tocar?

    0 Tocaram 0 Ainda não

    Grave um vídeo tocando Rejubila-te, Cidade Santa! e mande pra gente!

    00:00 / 00:00
    outros vídeos desta música
    repetir qualidade Automático
    Outros vídeos desta música
    00:00 / 00:00
    Automático

    Cifra Club Pro

    Aproveite o Cifra Club com benefícios exclusivos e sem anúncios
    7 dias grátis
    Cifra Club Pro
    Aproveite o Cifra Club com benefícios exclusivos e sem anúncios
    7 dias grátis
    OK