Cifra Club

Aprenda

Fuck Off Is Not The Only Thing You Have To Show

Cansei de Ser Sexy

Cifra: Principal (violão e guitarra)
tom: D
(guitarra 1)
|---7---------------------------------------------------------------|
|-9---9---9----------------------------------------------9----------|
|-------8---8----8------------------------9----9-11-9-11---11--9----|
|-------------9----9------------11--9--11---11----------------------|
|--------------------11--9--11--------------------------------------|
|-------------------------------------------------------------------|

(baixo 5 cordas)
|-----------------|   |-----------------|
|-----------------|   |-----------------|
|-----------------|2x |-------------4/2-|(2x junto com a guitarra 1)
|-4-4-4-4-4-4-2/0-|   |-----------------|
|-----------------|   |-2-2-2-2-2-2-----|

(baixo 4 cordas)

|-----------------|   |------------------|
|-----------------|   |-------------11/9-|
|-----------------|2x |------------------|(2x junto com a guitarra 1)
|-4-4-4-4-4-4-2/0-|   |-9-9-9-9-9-9------|

(guitarra 2)
|---------------------------------------------------|
|-4-4---4-------------------------------------------|
|-----6---6-4-4-3-4-3--6-----6-----6-----6----6-----|(4x)
|------------------------6-----6-----6-----6----6---|
|--------------------------7-----7-----7-----7----7-|
|---------------------------------------------------|

|-7-7-7-7-7-7-777--4-4-4-4-4-4-444-------|
|-9-9-9-9-9-9-999--5-5-5-5-5-5-555-------|
|-8-8-8-8-8-8-888--4-4-4-4-4-4-444-------|
|----------------------------------------|
|----------------------------------------|
|----------------------------------------|
Colaboração e revisão:
  • Jonatan Rafael
  • Gabriela Moraes
7.087 exibições
    • ½ Tom
    • A
    • Bb
    • B
    • C
    • Db
    • D
    • Eb
    • E
    • F
    • F#
    • G
    • Ab
  • Adicionar à lista

    0 comentários

    Ver todos os comentários

    Conseguiu tocar?

    0 Tocaram 0 Ainda não

    Grave um vídeo tocando Fuck Off Is Not The Only Thing You Have To Show e nos envie!

    00:00 / 00:00
    outros vídeos desta música
    repetir qualidade Automático
    Outros vídeos desta música
    00:00 / 00:00
    Automático

    Cifra Club Pro

    Aproveite o Cifra Club com benefícios exclusivos e sem anúncios
    Cifra Club Pro
    Aproveite o Cifra Club com benefícios exclusivos e sem anúncios
    OK