Meeting Paris Hilton

Cansei de Ser Sexy

tom: B
E|-------------------------|
B|-------------------------|
G|-9--------10---------7---|
D|---10-7------7---------9-|
A|-------------------8-----|
E|-------------------------|
"hello, this is brazil hilton"
I
I went to the bitch
The bitch was so hot
She came to me and said

( G#5   B5  E5  F#5 )
"do you like the bitch, bitch?"
I said "back!
I wanna take you home, bitch
I wanna treat you good, bitch
What do you think of it, bitch?"
B5              G5
The bitch said yeah
B5              G5
The bitch said yeah
B5                                        G5
The bitch said yeah, yeah, yeah, yeah, yeah
B5              G5
The bitch said yeah
B5              G5
The bitch said yeah
B5                                        G5
The bitch said oh yeah, hell yeah, damn yeah

I wanna be
Your summer hilton time
With five diamonds stars
Like your dad's big ass car

( G#5   B5  E5  F#5 )
I wanna go
To the hiltons all over the world
And I, I wanna be
Just like you, bitch

B5                   G5
The bitch said yeah
B5                   G5
The bitch said yeah
B5                                            G5
The bitch said yeah, yeah, yeah, yeah, yeah
B5                   G5
The bitch said yeah
B5                   G5
The bitch said yeah
B5                                            G5
The bitch said oh yeah, hell yeah, damn yeah
E|-------------------------|
B|-------------------------|
G|-9--------10---------7---|
D|---10-7------7---------9-|
A|-------------------8-----|
E|-------------------------|
The bitch …. Said …… yeah
The bitch …. Said …… yeah
YEAH …. Yeah … YEAH … yeah
Ain
YEAH …. Yeah … YEAH … yeah
YEAH …. Yeah … YEAH … yeah
E|-------------------------|
B|-------------------------|
G|-9--------10---------7---|
D|---10-7------7---------9-|
A|-------------------8-----|
E|-------------------------|
B5                   G5
The bitch said yeah
B5                   G5
The bitch said yeah
B5                                            G5
The bitch said yeah, yeah, yeah, yeah, yeah
B5                   G5
The bitch said yeah
B5                   G5
The bitch said yeah
B5                                            G5
The bitch said oh yeah, hell yeah, damn yeah

I
I went to the beach
The bitch was so hot
She came to me and said

    ( G#5   B5  E5  F#5 )
"do you like the bitch, bitch?
Do you like the bitch, bitch?
Do you like the bitch, bitch?"
Página 1 / 1

Letras e título
Acordes e artista

resetar configurações
OK