Cifra Club

Aprenda

Music Is My Hot, Hot Sex

Cansei de Ser Sexy

Cifra: Versão 3 (violão e guitarra)
tom: B
Intro: G#5,    B5, A#5, B5, E5    F#5   4x

From all the drugs the one I like more is music

e|--6\7-7--9--7---|
B|--6\7-7--9--7---|

From all the junks the one I need more is music

e|--6\7-7--6\7-7---9--4---|
B|--6\7-7--6\7-7---9--4---|

From all the boys the one I take home is music

e|--6\7-7--6\7-7--9--7---|
B|--6\7-7--6\7-7--9--7---|

From all the ladies the one I kiss is music (muah!)

e|--6\7-7--6\7-7---9--4---|
B|--6\7-7--6\7-7---9--4---|

Refrão:

e|---------------------------|
B|------9------9---9-12-11---|
G|---11-----11--11-----------|

Music is my boyfriend
Music is my girlfriend
Music is my dead end
Music is my imaginary friend
Music is my brother
Music is my great-grand-daughter
Music is my sister
Music is my favorite mistress

G#5,    B5, A#5, B5, E5    F#5  4x

From all the shit the one I gotta buy is music

e|--6\7-7--9--7---|
B|--6\7-7--9--7---|

From all the jobs the one I choose is music

e|--6\7-7--6\7-7---9--4---|
B|--6\7-7--6\7-7---9--4---|

From all the drinks I get drunk of music

e|--6\7-7--6\7-7--9--7---|
B|--6\7-7--6\7-7--9--7---|

From all the bitches the one I wannabe is music
e|--6\7-7--6\7-7---9--4---|
B|--6\7-7--6\7-7---9--4---|

Refrão:

e|---------------------------|
B|------9------9---9-12-11---|
G|---11-----11--11-----------|

Music is my beach house
Music is my hometown
Music is my kingsize bed
Music's where I meet my friends
Music is my hot hot bath
Music is my hot hot sex
Music is my back rub
My music is where I'd like you to touch

G#5,    B5, A#5, B5, E5    F#5  8x

Claro-que-sim
Fui escoteira-mirim
Direto da escola, não
Não ia cheirar cola
Nem basquete, pebolim
O que eu gosto não é de graça
O que gosto não é farsa
Tem guitarra, bateria, computador saindo som
Alguns dizem que é mais alto que um furacão (rhéum)
Perto dele eu podia sentir
Saía de seu olho e chegava em mim
Sentada do seu lado
Eu queria encostar
Faria o tigela até o sol raiar
Debaixo do lençol
Ele gemia em ré bemol
Fiquei tensa
Mas tava tudo bem

e|---------------------------|
B|------9------9---9-12-11---|
G|---11-----11--11-----------|

Ele é fodão, mas eu sei que eu sou também (5x)
Colaboração e revisão:
  • Divomar junior
1.079 exibições
    • ½ Tom
    • A
    • Bb
    • B
    • C
    • Db
    • D
    • Eb
    • E
    • F
    • F#
    • G
    • Ab
  • Adicionar à lista

    0 comentários

    Ver todos os comentários

    Conseguiu tocar?

    0 Tocaram 0 Ainda não

    Grave um vídeo tocando Music Is My Hot, Hot Sex e nos envie!

    00:00 / 00:00
    outros vídeos desta música
    repetir qualidade Automático
    Outros vídeos desta música
    00:00 / 00:00
    Automático

    Cifra Club Pro

    Aproveite o Cifra Club com benefícios exclusivos e sem anúncios
    Cifra Club Pro
    Aproveite o Cifra Club com benefícios exclusivos e sem anúncios
    OK