Cifra Club

Aprenda

This Month, Day 10

Cansei de Ser Sexy

Tab de baixo: Principal
INTRO (INSTRUMENTAL)
  3x                                     2x
G|----------------|----------------|    |----------------|----------------|   
D|----------------|----------------|    |----------------|----------------|
A|3---3---3---3---|3---3---3---3---|    |3-3---3-3-3---3-|3-3---3-3-3---3-|
E|----------------|----------------|    |----------------|----------------|

  2x
G|----------------|----------------|----------------|----------------|
D|--------1-1---1-|--------1-1---1-|--------1-1---1-|----------------|
A|3-3---3---------|3-3---3---------|3-3---3---------|3-3---3-0-0-1-1-|
E|----------------|----------------|----------------|----------------|

ESTROFE ("I am the last person you can call")
  2x
G|----------------|----------------|----------------|----------------|
D|--------1-1---1-|--------1-1---1-|--------1-1---1-|----------------|
A|3-3---3---------|3-3---3---------|3-3---3---------|3-3---3-0-0-1-1-|
E|----------------|----------------|----------------|----------------|

INSTRUMENTAL
G|----------------|----------------|----------------|----------------|
D|--------1-1---1-|--------1-1---1-|--------1-1---1-|----------------|
A|3-3---3---------|3-3---3---------|3-3---3---------|3-3---3-0-0-1-1-|
E|----------------|----------------|----------------|----------------|

ESTROFE ("if someday we get to meet again")
  2x
G|----------------|----------------|----------------|----------------|
D|--------1-1---1-|--------1-1---1-|--------1-1---1-|----------------|
A|3-3---3---------|3-3---3---------|3-3---3---------|3-3---3-0-0-1-1-|
E|----------------|----------------|----------------|----------------|

REFRÃO ("I'll be rude, I'll be rude, I'll be rude")
  3x
G|----------------|----------------|    |----------------|----------------|
D|----------------|----------------|    |----------------|----------------|
A|3-3-1-1-0-0-----|----------------|    |6-6-6-6-6-6-6-6-|8---8---8---8\--|
E|------------3-3-|1-1-1-1-1-1-1-1-|    |----------------|----------------|

INSTRUMENTAL
G|----------------|----------------|----------------|----------------|
D|----------------|----------------|----------------|----------------|
A|3---3---3---3---|3---3---3---3---|3-3---3-3-3---3-|3-3---3-3-3---3-|
E|----------------|----------------|----------------|----------------|

  2x
G|----------------|----------------|----------------|----------------|
D|--------1-1---1-|--------1-1---1-|--------1-1---1-|----------------|
A|3-3---3---------|3-3---3---------|3-3---3---------|3-3---3-0-0-1-1-|
E|----------------|----------------|----------------|----------------|

ESTROFE ("I've got to get up, get high, get outta here")
  4x
G|----------------|----------------|----------------|----------------|
D|--------1-1---1-|--------1-1---1-|--------1-1---1-|----------------|
A|3-3---3---------|3-3---3---------|3-3---3---------|3-3---3-0-0-1-1-|
E|----------------|----------------|----------------|----------------|

REFRÃO

INSTRUMENTAL
G|----------------|----------------|----------------|----------------|
D|----------------|----------------|----------------|----------------|
A|3---3---3---3---|3---3---3---3---|3---3---3---3---|3---3---3---3---|
E|----------------|----------------|----------------|----------------|

ESPECIAL (2x) ("I'm gonna tell you what i'll do")
  8x                    2x
G|----------------|    |----------------|----------------|----------------|----------------|
D|----1-1---------|    |----------------|----------------|----1-1---------|----1-1---------|
A|3-3-----0-0-1-1-|    |5-5-5-5-5-5-5-5-|8-8-8-8-8-8-8-8\|3-3-----0-0-1-1-|3-3-----0-0-1-1-|
E|----------------|    |----------------|----------------|----------------|----------------|

ESTROFE ("so, if someday we get to meet again")
  7x                        P
G|----------------|    |--  A  ---------|
D|----------------|    |--  U  ---------|
A|3---3---3---3---|    |3-  S  ---------|
E|----------------|    |--  A  ---------|

REFRÃO

FINAL
G|----------------|----------------|----------------|
D|----------------|----------------|----------------|
A|3---3---3---3---|3---3---3---3---|3---------------|
E|----------------|----------------|----------------|
Composição de Cansei De Ser Sexy
Colaboração e revisão:
  • Henrique Ludgero
254 exibições

0 comentários

Ver todos os comentários

Conseguiu tocar?

1 Tocaram 0 Ainda não

Grave um vídeo tocando This Month, Day 10 e nos envie!

00:00 / 00:00
outros vídeos desta música
repetir qualidade Automático
Outros vídeos desta música
00:00 / 00:00
Automático

Cifra Club Pro

Aproveite o Cifra Club com benefícios exclusivos e sem anúncios
Cifra Club Pro
Aproveite o Cifra Club com benefícios exclusivos e sem anúncios
OK