Cifra Club

Aprenda

Descansar

Canto Dos Malditos Na Terra do Nunca

Cifra: Completa (violão e guitarra)
Já pensou em usar uma coleção de roupas do Cifra Club? Responda as perguntas abaixo e nos ajude nessa missão! →
tom: C
Am               Dm  G        Am
  Eu quero descansar no teu peito
                  Dm   G                        Am
  O cansaço dessa vida e o peso de ter que ser alguém
                Dm
  Eu já não sei o que faço meu bem
  G             A5
  Nem o que farei
                 D5         G5                      A5
  Mas se você quiser e vier pro que der e vier comigo
           D5  G5        A5
  Eu posso ser o seu abrigo
A5                D5        G5                     A5
  Mas se você não quiser eu posso ser um qualquer inimigo
               D5              G5                  A5
  Mas só quero que saiba meu bem esteja sempre comigo

(riff 1)

    A5   G5   F5                                        A5  G5  F5
E|--x----x----x-----------------------------------------x----x----x-------------------------------|
B|--x----x----x-----------------------------------------x----x----x-------------------------------|
G|--x----x----x-----------------------------------------x----x----x-------------------------------|
D|-7--x-5--x-3-x---------------------------------------7--x-5--x-3-x------------------------------|
A|-7--x-5--x-3-x---------------------------------------7--x-5--x-3-x------------------------------|
E|-5--x-3--x-1-x-10/12-7--7-7-10-10-8-8-7-8--8-7-8-7-5-5--x-3--x-1-x-10/12-7--7-7-10-10-8-8-7-5---|

Am         D5   G5            A5
  Eu quero encontrar a minha paz
                D5          G5                    A5
  Que eu já não sei dos perigos que essa vida me traz
                             D5           G5                    A5
  Só sei que a gente inventa o amor e dor e tudo que nos satisfaz
 A5             D5   G5                           A5
  Mas se você quiser e vier pro que der e vier comigo
           D5  G5
  Eu posso ser o seu abrigo
A5                D5            G5                    A5
  Mas se você não quiser me nego a todo e qualquer castigo
               D5              G5                    A5
  Mas só quero que saiba meu bem te levo sempre comigo.

 A5   G5   F5                                        A5  G5  F5
E|--x----x----x-----------------------------------------x----x----x--------------------------------|
B|--x----x----x-----------------------------------------x----x----x--------------------------------|
G|--x----x----x-----------------------------------------x----x----x--------------------------------|
D|-7--x-5--x-3-x---------------------------------------7--x-5--x-3-x----------------------------7--|
A|-7--x-5--x-3-x---------------------------------------7--x-5--x-3-x----------------------------7--|
E|-5--x-3--x-1-x-10/12-7--7-7-10-10-8-8-7-8--8-7-8-7-5-5--x-3--x-1-x-10/12-7--7-7-10-10-8-8-7-5-5--|

D|---------------------------------------------------------------------|
A|---------------------------------------------------------------------|(2x)
E|-8/5-5-5-8-8-8/12-12-8/5-5-5-8-8-8/12-12-8-(8x)-7(4x)-6(5x)----------|

D|------------------------------------------------------------------------------------------------------------|
A|------------------------------------------------------------------------------------------------------------|
E|-8/5-5-5-8/12-8/5-5-5-8/11-8-(8x)-7(4x)-6(5x)-8/5-5-5p8-8p-8p~-5-5-8p-8p~-8p-8-(8x)-7(4x)-6(5x)-8/5-5-5-8/12|

D|---------------7-7t(6x)-5t(7x)----------|
A|-5/7-7-7-3/5/7--------------------------|
E|----------------------------------------|
Composição de Andrea Martins
Colaboração e revisão:
  • André Parente
1.149 exibições
    • ½ Tom
    • A
    • Bb
    • B
    • C
    • Db
    • D
    • Eb
    • E
    • F
    • F#
    • G
    • Ab
  • Adicionar à lista

    0 comentários

    Ver todos os comentários

    Conseguiu tocar?

    4 Tocaram 0 Ainda não

    Grave um vídeo tocando Descansar e nos envie!

    00:00 / 00:00
    Outros vídeos desta música
    Repetir Qualidade Automático
    Outros vídeos desta música
    00:00 / 00:00
    Automático

    Cifra Club Pro

    Aproveite o Cifra Club com benefícios exclusivos e sem anúncios
    Cifra Club Pro
    Aproveite o Cifra Club com benefícios exclusivos e sem anúncios
    OK