Cifra Club

Algum Dia

Capital Inicial

Tab de baixo: Principal
exibições 19.576
BY flavio LEMOS

vc nesta música basicamente só marca o tempo então só faça
 isto no momento certo(escute bem a música)

   E       D9    C#m        F#m             B       D9
--------------------------------------------------------------
--------------------------7/4---------------------------------
---9/7----7/5--7/4----------------------1-2-22222-4--5-555----
--------------------------------------------------------------

os dois riffs a seguir são o refrão da música toque-os 2X

Talvez até pq ninguém ligue pra vc...

-----------------------------------------------------------
-----------2-0-2-------------------------------------------  
-------2-2--------------0-0--------------------------------
---2-2-------------0-0------4/5----------------------------  

Mas se vc quer q eu feche os olhos...
-----------------------------------------------------------
-----------------------------------------------------------
------------------------4-4-4-4----------------------------
--5-5-5-7-7-777---4-4-4------------------------------------


-------------
-------------   deixe anota "B" soar bem
-0/2---------
-------------

apartir deste ponto vc repete TUDO...
solo:
------------------------------------------------------
------------------------------------------------------ 2X
---O-0-0-0000--2-22-2-2-2-5-5-5-55555-----------------
------------------------------------------------------

repeti o refrão

a música encerra com:
O mundo lá fora/avida la fora
------------------------------------------------------
------------------------------------------------------
-0-0-0-00-0-2-2-2-2-2-2-2-2-0-0-0-0-0-0-2-2-2-2-2-2-2-
------------------------------------------------------


_______________________________________________________
Contribuição: carcaju(carcaju_bassman@HOTMAIL.com)
Composição: Pit Passarell

0 comentários

    mostrar mais comentários

    Conseguiu tocar?

    0tocaram1ainda não

    Grave um vídeo tocando Algum Dia e mande pra gente!

    00:00 / 00:00
    outros vídeos desta música
    repetirqualidadeautomática
    Outro vídeos desta música
      00:00 / 00:00
      automática
      OK