Cifra Club

Aqui

Capital Inicial

Cifra: Principal
exibições 171.921
Tom: E
(intro)
E E4 (2x)
E F#m A E E4
E|------12ha-------12ha--------|
[tab#cmp]
B|-12ha-----------------12ha---|
G|-----------------------------|
D|-----------------------------|
A|-----------------------------|
E|-----------------------------|
[tab#/inicio]
E                             F#m
  Às vezes acho que eu fiquei louco
A                               E
  Me dando conselhos até ficar rouco
E                              F#m
  Às vezes acho que eu perdi a memória
A                              E
  Contando de novo a mesma história

(refrão)
  F#m                   E
Aqui onde as horas não passam
  F#m                   E
Aqui onde o Sol não me vê
  F#m                G#m
Aqui onde eu não moro
 A                E     B
Não existo sem você

E                                  F#m
  Me olho no espelho e me vejo do avesso
A                               E
  O mesmo rosto que eu não reconheço
E                           F#m
  O rádio ligado, chuva e calor
A                                  E
  As gotas me ferem mas não sinto dor

(refrão)
  F#m                   E
Aqui onde as horas não passam
  F#m                   E
Aqui onde o Sol não me vê
  F#m               G#m
Aqui onde eu não moro
 A               E     B
Não existo sem você
(solo)  A E A E C#m F#m C#m F#m C#m F#m B
                                     (2x)                         (3x)
E|---------------------------------------||---7/9--7--4-5-4---4------|
B|-7/9--7--5---5---7/9--7--5---5---------||-----------------5--------|
G|-----------6---------------6-----------||--------------------------|
D|---------------------------------------||--------------------------|  
A|---------------------------------------||--------------------------|
E|---------------------------------------||--------------------------|

E|--7/9--7--4-5-4------------------------------|
B|----------------5------5--7--8-7-8-----------|
G|------------------4--6--------------9-6-5/6--|
D|---------------------------------------------|
A|---------------------------------------------|
E|---------------------------------------------|
[tab#/inicio]
(refrão 2x - solo)
  F#m                   E
Aqui onde as horas não passam
  F#m                   E
Aqui onde o Sol não me vê
  F#m               G#m
Aqui onde eu não moro
 A               E
Não existo sem você

( E E4 ) (4x)
Acordes para:
    Composição: Dinho Ouro PretoColaboração e revisão:

    0 comentários

      mostrar mais comentários

      Conseguiu tocar?

      20tocaram0ainda não

      Grave um vídeo tocando Aqui e mande pra gente!

      00:00 / 00:00
      outros vídeos desta música
      repetirqualidadeautomática
      Outro vídeos desta música
        00:00 / 00:00
        automática
        OK