Cifra Club

Coração Vazio

Capital Inicial

Cifra: Principal
exibições 45.783
Tom: C
Afinação: G A D G B E

Intro: G9   A4/B   C7M   Am7 (2x)

Formas dos acordes:

     G9   A4/B   C7M   Am7   G5   C5(9)   C7M
E|--------------------------------------0---|
B|--------------------------------------0---|
G|-4-----------------------7----7-------4---|
D|-7----7------9-----5-----4----5-------5---|
A|-5----5------7-----3-----5----3-------3---|
G|-0----4------5-----2-----0----------------|

G9               A4/B
Tudo tem o seu lugar
               C7M
Tudo tem a sua hora
                   Am7
E eu cansei de esperar
                G9
A minha hora é agora
                  A4/B
Com os olhos na estrada
                           C7M
Eu sigo em frente e não desvio
   Am7                G5
Só eu e meu coração vazio
     G9            G5
Bate forte e tenho pressa
       G9            C5(9)
Não há nada que me impeça
      C7M       C5(9)
De querer acreditar
       C7M         G5
No que não consigo ver
     G9          G5
Como posso ir em frente
     G9            C5(9) C7M
Como posso ser tão frio
   C5(9)    C7M
Só eu e --- meu coração vazio

Riff do refrão:

E|-----------------------------------------------------------------------------------------------|
B|------12---------12------12------------13-----------13------13---------------------------------|
G|--------------------0---------0-----------0-------0----0---------------------------------------|
D|---12----12---12------12------------12---------12--------12------x-----------------------------|
A|-----------------------------------------------------------------------------------------------|
G|-0----------0---------------0----10---------10-----------------x-------------------------------|

E|-----------------------------------------------------------------------------------------------|
B|--------10----------10------10------------8---------8-----------10-----------------------------|
G|------0----0------0----0----------------0---0-----0---0-------0--------------------------------|
D|---10----------10--------10------x----8---------8----------10----------------------------------|
A|-----------------------------------------------------------------------------------------------|
G|-9-----------9-----------------x----8---------8---------10-------------------------------------|

E|-----------------------------------------------------------------------------------------------|
B|--------12----------12------12--------------13-----------13------13----------------------------|
G|------0----0------0----0---------0--------0----0-------0----0----------------------------------|
D|---12----------12--------12------------12-----------12--------12------x------------------------|
A|-----------------------------------------------------------------------------------------------|
G|-0-----------0-----------------0----10-----------10-----------------x--------------------------|

E|-----------------------------------------------------------------------------------------------|
B|--------10----------10------10------------8---------8-----8------------5---------5-----5-------|
G|------0----0------0----0----------------0---0-----0---0--------------0---0-----0---0-----------|
D|---10----------10--------10------x----8---------8-------8-----x----5---------5-------5-----x---|
A|-----------------------------------------------------------------------------------------------|
G|-9-----------9-----------------x----8---------8-------------x----5---------5-------------x-----|

E|-----------------------------------------------------------------------------------------------|
B|-------3-----------3-----3--------1-1/----3-----0h3p0------------------------------------------|
G|-----0---0---0---0---0--------0-------------0---------0----------------------------------------| (4x)
D|---3-----------2-------2--------1-------------0---------0--------------------------------------|
A|-----------------------------------------------------------------------------------------------|
G|-3---------2----------------1----------0-------------------------------------------------------|

Não tem começo, não tem fim
Será que você vai esperar por mim
Esperar por mim
Esperar por mim
Esperar por mim

G9                 A4/B
São as falhas da razão
                   C7M
São os erros do perdão
                     Am7
Que tenho medo de perder
                     G9
Enquanto não me encontrar
                       A4/B
O mesmo rosto, o mesmo tempo
                            C7M
Quando eu choro e quando eu rio
   Am7                G5
Só eu e meu coração vazio
        G9          G5
Deixo o vento me mostrar
    G9           C5(9)
O caminho pra voltar
     C7M          C5(9)         C7M            G5
Eu esqueço, eu me movo, eu me levanto e vou de novo
     G9          G5
Tudo sempre por acaso
     G9            C5(9) C7M
Tudo sempre por um fio
   C5(9)    C7M
Só eu e --- meu coração vazio

E|-----------------------------------------------------------------------------------------------|
B|--------12----------12------12--------------13-----------13------13----------------------------|
G|------0----0------0----0---------0--------0----0-------0----0----------------------------------|
D|---12----------12--------12------------12-----------12--------12------x------------------------|
A|-----------------------------------------------------------------------------------------------|
G|-0-----------0-----------------0----10-----------10-----------------x--------------------------|

E|-----------------------------------------------------------------------------------------------|
B|--------10----------10------10------------8---------8-----------10-----------------------------|
G|------0----0------0----0----------------0---0-----0---0-------0--------------------------------|
D|---10----------10--------10------x----8---------8----------10----------------------------------|
A|-----------------------------------------------------------------------------------------------|
G|-9-----------9-----------------x----8---------8---------10-------------------------------------|

E|-----------------------------------------------------------------------------------------------|
B|--------12----------12------12--------------13-----------13------13----------------------------|
G|------0----0------0----0---------0--------0----0-------0----0----------------------------------|
D|---12----------12--------12------------12-----------12--------12------x------------------------|
A|-----------------------------------------------------------------------------------------------|
G|-0-----------0-----------------0----10-----------10-----------------x--------------------------|

E|-----------------------------------------------------------------------------------------------|
B|--------10----------10------10------------8---------8-----8------------5---------5-----5-------|
G|------0----0------0----0----------------0---0-----0---0--------------0---0-----0---0-----------|
D|---10----------10--------10------x----8---------8-------8-----x----5---------5-------5-----x---|
A|-----------------------------------------------------------------------------------------------|
G|-9-----------9-----------------x----8---------8-------------x----5---------5-------------x-----|

E|-----------------------------------------------------------------------------------------------|
B|-------3-----------3-----3--------1-1/----3-----0h3p0------------------------------------------|
G|-----0---0---0---0---0--------0-------------0---------0----------------------------------------| (3x)
D|---3-----------2-------2--------1-------------0---------0--------------------------------------|
A|-----------------------------------------------------------------------------------------------|
G|-3---------2----------------1----------0-------------------------------------------------------|

E|-----------------------------------------------------------------------------------------------|
B|-------3-----------3-----3--------1-1/---------------------------------------------------------|
G|-----0---0---0---0---0--------0----------------------------------------------------------------|
D|---3-----------2-------2--------1--------------------------------------------------------------|
A|-----------------------------------------------------------------------------------------------|
G|-3---------2----------------1----------0-------------------------------------------------------|

Não tem começo, não tem fim
Será que você vai esperar por mim
Esperar por mim
Esperar por mim
Esperar por mim
Acordes para:
    Colaboração e revisão:
    • Silas Borges
    • Eric Oliveira
    • digows dot2

    0 comentários

      mostrar mais comentários

      Conseguiu tocar?

      20tocaram5ainda não

      Grave um vídeo tocando Coração Vazio e mande pra gente!

      00:00 / 00:00
      outros vídeos desta música
      repetirqualidadeautomática
      Outro vídeos desta música
        00:00 / 00:00
        automática
        OK