Enviar cifraEntrar

Fátima

Capital Inicial

Tab de baixo: Principal
exibições 63.136
Corrigida: Música completa

Tom: C


G|----------------------3--3-3-3-2---------------
D|-0-0-0-----0-0-0-3-3-0----------5-3-2--2-------
A|----3-3-1-0---3-------------------------3--3-3-
E|-----------------------------------------------

G|--------------------------
D|--------------------------
A|-5--5--5-----5-5--5-8-8-5-
E|-----8--8-6-5---8---------

G|----------------------------------
D|-8--8-8-8-8-10--10-10-10-10-8-----
A|------------------------------10--
E|--------------------------------8-


G|---------------------------3--3-3-3-2-----------------
D|-----------------------3-3-----------5-3-2--2---------
A|-5--5-3-5-3---5--5--3-5---5------------------0-3--3-3-
E|-----------6-5----------------------------------------

G|--------------------------
D|--------------------------
A|-5--5--5-----5-5--5-8-8-5-
E|-----8--8-6-5---8---------

G|----------------------------
D|-8--8-8-8-7-----------------
A|-----------10-8-7--7/15-15\-
E|----------------------------

G|--------------------------------|--------5------
D|-----------------------3--------|-------5-7-5-7-
A|-5--5-3-5-3---5--5--3-5--0-1(8x)|-3--5/7--------
E|-----------6-5------------------|---------------




G|--------------------------
D|---------------------3-3--
A|-5--5--5-----5--5-3-5---5-
E|-----8--8-6-5-------------

G|----------------------------
D|-8--8-8-8-7-----------------
A|-----------10-8-7--7/15-15\-
E|----------------------------


G|------------------------------------
D|----------------------------------7-
A|--5-5--5-5--5-5--3---5-5--5-5--5-5--
E|------------------------------------

G|---------------------------------5--
D|--------------------------------7-7-
A|--5-5--5-5--5-5----5-5--5-5--5-5----
E|---------------8--------------------


G|-----------------------------
D|-----------------------3-3---
A|-5--5-3-5-3---5--5--3-5----5-
E|-----------6-5---------------

G|-----------------------------------
D|-8--8-8-8-8-8-10--10-10-10-10-8----
A|-------------------------------10--
E|---------------------------------8-

G|---------------------------3--3-3-3-2-------------
D|----------------------3-3------------5-3-2--------
A|-5--5-3-5-3---5--5-3-5----5----------------3--3-3-
E|-----------6-5------------------------------------

G|------------------------------------------------------
D|---------------------3-3--8--8-8-8-7------------------
A|-5--5--5-----5--5-3-5---5-----------10--8-7--7/15-15\-
E|-----8--8-6-5-----------------------------------------

G|-------------------------------|--------5-------
D|---------------------3-3-------|-------5--7-7-5-
A|-5--5--5-----5--5-3-5---0-1(8x)|-3--5/7---------
E|-----8--8-6-5------------------|----------------

G|----------------------------3--3-3-3-3-3-3-5-5-5--5--5-5-
D|-----------------------3-3----------------------5--------
A|-5--5-3-5-3---5--5-3-5----5------------------------------
E|-----------6-5-------------------------------------------

G|-7--7---7-10-10-9--7-7-10-9-7-----------------------------
D|-----10------------------------10-8--8-8-8-7--------------
A|--------------------------------------------10-8-7\3--3-3-
E|----------------------------------------------------------

G|----------------------------------------------------------
D|----------------------3-3--8--8-8-8-7-----------10-7-10-7-
A|-5--5-3-5-3---5--5-3-5----5----------10-8-7--7-7----------
E|-----------6-5--------------------------------------------


G|-----------------------------------------|||-------
D|------------------------------3(8x)------|||-7-7-5-
A|-5--5-3-5-5--3-5--5-3-5-5-5-5------3(8x)-|||-------
E|-----------------------------------------|||-------

G|---------------------------------
D|--------------------3(8x)/10(7x)-
A|-5--5-3-5-5--3-5(8x)-------------
E|---------------------------------


G|--------------------------3--3-3-3-2-----------------
D|----------------------3-3-----------5-3-2--2---------
A|-5--5-3-5-3---5--5-3-5---5------------------0-3--3-3-
E|-----------6-5---------------------------------------

G|-------------------------------------------------------
D|---------------------------8--8(6x)-10-10-10---10-8----
A|-5--5--5-----5--5--5--8-8-5-----------------10-----10--
E|-----8--8-6-5----------------------------------------8-

G|---------------------------
D|-----------------------3-3-
A|-5--5-3-5-3---5-5-5-3-5----
E|-----------6-5-------------

G|------------------------5------
D|-----------------------5-7-5-7-
A|-0-1--1-1-1-1-1-1/3-5/7--------
E|-------------------------------

G|------------------------------
D|-----------------------3-3----
A|-5--5-3-5-3---5-5-5-3-5-----5-
E|-----------6-5----------------

G|------------------------------------
D|-8--8-8-8-8-8-8/10-10-10--10--10-10-
A|------------------------10----------
E|------------------------------------

G|------------------------------
D|-12--12----12-15-15-14--12-12-
A|-------15---------------------
E|------------------------------

G|-------------------------------------------------
D|--15-14-12---------------------------------------
A|-----------15-13--13-13-13-12--------------------
E|-----------------------------15-13-12--12\8--8-X-

G|----------------------------------------------------------
D|----------------------3-3--8--8-8-8-7---------------------
A|-5--5-3-5-3---5--5-3-5---5-----------10-8-7--7/15--15-15\-
E|-----------6-5--------------------------------------------

G|---------------------------------------------------
D|----------------------3-3---8--8-8-8-7----------5--
A|-5--5-3-5-3---5--5-3-5----5-----------10-8-7-----5-
E|-----------6-5------------------------------5-5----



G|-----------------------------------7--
D|-------------------3-3--------------7-
A|-5-3-5-3---5--5-3-5---5--1-1---3-3--5-
E|--------6-5---------------------------
  • 1
  • 2
  • 3
  • 4
  • 5
  • 6
  • 7
  • 8
  • 9
  • 10
  • 11
  • 12
    Composição: Fl / Renato RussoColaboração e revisão:

    0 comentários

      mostrar mais comentários
      00:00 / 00:00
      outros vídeos desta música
      repetirqualidadeautomática
      • automática
      Outro vídeos desta música
        00:00 / 00:00
        automática
        • automática
        fecharplay/pause subir/descer velocidade
        fechar
        OK