Cifra Club

Natasha

Capital Inicial

Tab de baixo: Principal
exibições 62.691
Introdução:(2x)
 
G -|------------------------|- -|-------------------------|- 
D -|------------------------|- -|-------------------------|- 
A -|--2~-2-----2~--------0--|- -|--0-0-0-0-0-0-0-0-0-0-0--|- 
E -|-------3-3----0--0-0----|- -|-------------------------|- 
... Com passos sem pensar, um outro dia um outro lugar.. 

G -|------------------------------------------------------------------|- 
D -|------------------------------------------------------------------|- 
A -|--5--5-5-5-5-5-5--------------------------------------------------|- 
E -|------------------3--3-3-3-3-3-3--0--0-0-0-0-0-0--5--5-5-5-5-5-5--|- 
... Pelos caminhos garrafas e cigaros...

G -|----------------------------------------------------------|- 
D -|----------------------------------------------------------|- 
A -|----------------------------2--2--2-2-2--0-2--2--2-2-2-0--|- 
E -|--3--3--3-3-3--5--5--5-5-5--------------------------------|- 
.. O Mundo vai acabar, e ela só quer dançar .. 

G -|-------------------------------------|- 
D -|-------------------------------------|- 
A -|--2--2-2-2-2-2-2---------------------|- 
E -|-----------------5-5-5-5-5-5-5-5-5~--|- 
.. e ela só quer dançar, dançar, dançar.. (pneus de carros cantam:)  

G -|------------------------------------------------------------------|- 
D -|------------------------------------------------------------------|- 
A -|--5--5-5-5-5-5-5--------------------------------------------------|- 
E -|------------------3--3-3-3-3-3-3--0--0-0-0-0-0-0--5--5-5-5-5-5-5--|- 
.. tchu ru ru ru.. 
Composição: Alvin L. / Dinho Ouro PretoColaboração e revisão:
  • josé junior

0 comentários

    mostrar mais comentários

    Conseguiu tocar?

    4tocaram0ainda não

    Grave um vídeo tocando Natasha e mande pra gente!

    00:00 / 00:00
    outros vídeos desta música
    repetirqualidadeautomática
    Outro vídeos desta música
      00:00 / 00:00
      automática
      OK