O Mundo

Capital Inicial

Composição de: Pit Passarell
tom: E
O riff que a acompana o "tchurutchu":

E|-------------------------------------
B|------------7-----5-----------------
G|------------------------4-----------  (x2)
D|------------------------------------
A|------------------------------------
E|------------------------------------

E|------------------------------------
B|------------7---5-----7---5------
G|----------------------------------
D|-----------------------------------
A|------------------------------------
E|----------------------------------- 

E|-------------------------------------
B|------------7-----5-----------------
G|------------------------4-----------
D|-------------------------------------
A|-------------------------------------
E|-------------------------------------

(x2)

 E                       A             C#m  
Tchurutchu, Tchurutchu, tchurutchuru, Tchurutchu 
E                       A             C#m  
Tchurutchu, Tchurutchu, tchurutchuru, Tchurutchu 
 
E  
Você que já esteve no céu  
                          A  
Foi tudo divertido pra você?  
                        C#m  
Chega a hora então de provar tudo que existe  
E  
Tire agora os sapatos jogue tudo pro alto sinta o chão  
A                                             C#m  
Pra aprender a andar descalço nesse mundo de asfalto e sem coração  
 B              E              A  
Até que o mundo gire ao seu redor  
 
E                      A              C#m  
Thururuthu, thururuthu, thururuthuru, thururuthu  
E                      A              C#m 
Thururuthu, thururuthu, thururuthuru, thururuthu  
  E  
Obrigado por passar mas estou de saída  
                            A  
Tem alguma coisa nova pra fazer?  
                      C#m  
Vamos lá então ter um dia diferente  
E  
Eu só quero curtir ficar a toa viver numa boa  
A                           C#m  
E você quer respostas exige provas músicas novas  
 B              E              A  
Até que o mundo gire ao seu redor  
 
F#m  
Vão falar que você não é nada  
A  
Vão falar que você não tem casa  
E               B                 C#m  
Vão falar que você não merece que anda bebendo e está perdido  
F#m  
E não importa o que você dissesse  
A  
Você seria desmentido  
E               B             C#m  
Vão falar que você usa drogas e diz coisas sem sentido  
A           E          C#m          B             A  
Se eu for ligar pro que é que vão falar não faço nada  
 
E  
Eu procuro tentar entender  
                                   A  
Porque eu sou tão importante pra você  
                             C#m  
Já que é bem melhor ser importante pra si mesmo  
E  
Eu não quero mudar ser mais discreto ser mais esperto  
A                                C#m  
Já cansei de propostas de dar respostas e ter que dar certo  
 B              E              A  
Até que o mundo gire ao meu redor  
 
F#m  
Vão falar que você não é nada  
A  
Vão falar que você não tem casa  
E               B                 C#m  
Vão falar que você não merece que anda bebendo e está perdido  
F#m  
E não importa o que você dissesse  
A  
Você seria desmentido  
E               B             C#m  
Vão falar que você usa drogas e diz coisas sem sentido  
A           E          C#m          B             A  
Se eu for ligar para o que é que vão falar não faço nada  
 
E                       A              C#m 
Thururuthu, thururuthu, thururuthuru, thururuthu  
E                       A              C#m 
Thururuthu, thururuthu, thururuthuru, thururuthu 
 
SOLO: 
AU!                                         Yeah! 
e|----------------------------------------------------------------------| 
B|-5-8-10-8-5--5-8-10-8-10-8-8-5--5-8-10101010-8-8-5--10101010-8-8-5----| 
G|-4-7-9--7-4--4-7-9--7-9--7-7-4--4-7-9-9-9-9--7-7-4--9-9-9-9--7-7-4----| 
D|----------------------------------------------------------------------| 
A|----------------------------------------------------------------------| 
E|----------------------------------------------------------------------| 
 
e|-12121212-12-12--12121212-10-10-88-8--4-77-7-10\-4-8-4-8--2--4--0-----| 
B|-12121212-12-12--12121212-9--9--77-7--5-88-8-9\--5-7-5-7--4--5--2-----| 
G|----------------------------------------------------------4--6--2-----| 
D|----------------------------------------------------------4--6--2-----| 
A|----------------------------------------------------------2--4--0-----| 
E|----------------------------------------------------------------------| 
 
F#m  
Vão falar que você não é nada  
A  
Vão falar que você não tem casa  
E               B                 C#m  
Vão falar que você não merece que anda bebendo e está perdido  
F#m  
E não importa o que você dissesse  
A  
Você seria desmentido  
E               B             C#m  
Vão falar que você usa drogas e diz coisas sem sentido  
A           E          C#m          B             A  
Se eu for ligar para o que é que vão falar não faço nada  
 
E                      A              C#m  
Thururuthu, thururuthu, thururuthuru, thururuthu  
E                      A              C#m 
Thururuthu, thururuthu, thururuthuru, thururuthu  
 
(B  E  A)
Página 1 / 1

Letras e título
Acordes e artista

resetar configurações
OK