Cifra Club

O Passageiro

Capital Inicial

Tab de baixo: Principal
exibições 9.207
Minha segunda tab acho que ficou legal e bem simples e so escutar a musica pr pegar o tempo 

RIFF 1 E ASSIM ATE O FINAL DA MUSICA
G----------------------------------------------------
D---------------------------------------------------- 
A-7------------5-------5-----------------------------
E-----8----3-------3---------------------------------

"Bass Solo"

G-----------------------------------------------------
D-----5-----5-----------------------------------------
A--7-----7-----7---5-----7-----3--5-------------------
E---------------------3-----3-------------------------
Colaboração e revisão:
  • luciano araujo
  • RAfael

0 comentários

    mostrar mais comentários

    Conseguiu tocar?

    2tocaram0ainda não

    Grave um vídeo tocando O Passageiro e mande pra gente!

    00:00 / 00:00
    outros vídeos desta música
    repetirqualidadeautomática
    Outro vídeos desta música
      00:00 / 00:00
      automática
      OK