Cifra Club

Primeiros Erros

Capital Inicial

Tab de baixo: Principal
exibições 28.256
(intro)

G-------------------------------------------
D-----7-7-------6-6-------4-4-------4-4-----
A-5-5-------4-4-------2-2-------2-2---------
E---------5---------4---------4---------5...
                                                  
G----------- meu caminho é cada manhã              
D-----7-7--- não proucure saber onde.....    (4x)
A-5-5-------
E---------5..

G----------- ...estou
D-----4-4---  meu destino não é de ninguem   (4x)
A-2-2------- e não...
E--------2..

G---------
D---------...deixo meus pasos no... (1x)
A-----7-7-
E-5-5-----

G------------...chão
D-----7-7---- se você não entende não vê    (4x)
A-5-5-------- se não me vê não me intende....
E---------5..

G----------- não proucure saber onde estou
D-----4-4---   se o meu...                     (3x)
A-2-2-------
E---------2..

G---------
D--------- jeito te ...                       (1x)
A-----7-7-
E-5-5-----

G--------- surpreende
D--------- Se o meu corpo virasse sol       (4x)
A-----5-5- Minha mente virasse...
E-3-3-----

G-------- sol
D-------- mais só chove e chove
A----2-2- chove...
E-0-0----

G--------------
D------------- chove
A---2-3-4-2-3-
E-0-----------

(repete intro)
(segunda parte a mesma coisa)
Composição: Kiko ZambianchiColaboração e revisão:
  • Pedro Henrique

0 comentários

    mostrar mais comentários

    Conseguiu tocar?

    4tocaram2ainda não

    Grave um vídeo tocando Primeiros Erros e mande pra gente!

    00:00 / 00:00
    outros vídeos desta música
    repetirqualidadeautomática
    Outro vídeos desta música
      00:00 / 00:00
      automática
      OK