Cifra Club

Respirar Você

Capital Inicial

Cifra: Principal
exibições 179.073
Tom: C
Intro Riff 1x
     Am              F            C              Em
E|----------0------------------------------------0--|
B|------------1--------1-------------1-----------0--|
G|------------------------2------------0------------|
D|--------------------------------------------------|
A|--0-0------------------------3-3------------------|
E|----------------1-1-----------------------0-0-----|

     Am              F            C              G
E|----------0------------------------------------0--|
B|------------1--------1-------------1-----------0--|
G|------------------------2------------0------------|
D|--------------------------------------------------|
A|--0-0------------------------3-3------------------|
E|----------------1-1-----------------------3-3-----|

Am           F           C        Em
Lento como o tempo q não quer passar
Am           F          C       G
Dorme pelos cantos e me faz pensar
Am           F            C       Em
Certo comu um corte q não quer doer
Am         F            C      G
Olho pro espelho sem me conhecer

Refrão:

C       F     C       F
Vou fingir q nunca te vi
C      F      C        F
Vou viver sem ter onde ir
C             G           Am
Até cansar de respirar você
C             G           F
Até cansar de respirar você

Am              F             C          Em
Hà uma coisa errada quando um par são três
     Am     F          C       G
uma vida inteira na primeira vez
   Am         F             C        Em
Palavra por palavra o que não quer dizer
Am           F           C      G
Arde tanto a ponto de enlouquecer

(Refrão)

( A5  F5 ) 3x  G
( A5  F5 ) 3x  G

Am           F           C        Em
Lento como o tempo q não quer passar
Am           F          C       G
Dorme pelos cantos e me faz pensar
Am           F            C       Em
Certo comu um corte q não quer doer
Am         F            C      G
Olho pro espelho sem me conhecer

C       F     C       F
Vou fingir q nunca te vi
C      F      C        F
Vou viver sem ter onde ir
C       F     C       F
Vou fingir q nunca te vi
C      F      C        F
Vou viver sem ter onde ir
C             G           Am
Até cansar de respirar você
C             G           F
Até cansar de respirar você

Solo 2 - 6x: Am  F  C  Em
             Am  F  C  G
 
Amanhã vai ser outro dia
Acordes para:

    0 comentários

      mostrar mais comentários

      Conseguiu tocar?

      12tocaram0ainda não

      Grave um vídeo tocando Respirar Você e mande pra gente!

      00:00 / 00:00
      outros vídeos desta música
      repetirqualidadeautomática
      Outro vídeos desta música
        00:00 / 00:00
        automática
        OK