Cifra Club

Aprenda

All My Friends Are Falling in Love

Carbona

Cifra: Principal (violão e guitarra)
Tom: A
        A
There's nobody out in the football field
   E
I walk through the bars 
                     F#
They're empty like my heart

At the club there's nothing new...
   D
I don't know where to go neither where to start
  A
I can't live with just good regards
    E
Nice girls, nice friends

Don't know where they're
   F#
Am I stupid, selfish or some
    D
Smart dumbshit motherfucker alone

Refrão 2x
A       E
Oh oh oh 
F#                  D             A
All my friends are falling in love
   E
Oh oh
  E                D
All my friends are falling in love!!!



Riff
e|------------------12-12-10--9---------------------12-12-10-9---------
b|-----10-10-10-10---------------------10-10-10-10---------------------
g|---------------------------------------------------------------------
D|---------------------------------------------------------------------
A|---------------------------------------------------------------------
E|---------------------------------------------------------------------

e|------------------12-12-10--9--------10-10-10-10----12-12-10-9-------
b|-----10-10-10-10------------------------------------------------10---
g|---------------------------------------------------------------------
D|---------------------------------------------------------------------
A|---------------------------------------------------------------------
E|---------------------------------------------------------------------
Colaboração e revisão:
  • Marcel Jaboour
3.517 exibições
    • ½ Tom
    • A
    • Bb
    • B
    • C
    • Db
    • D
    • Eb
    • E
    • F
    • F#
    • G
    • Ab
  • Adicionar à lista

    0 comentários

    Mostrar mais comentários

    Conseguiu tocar?

    0 Tocaram 0 Ainda não

    Grave um vídeo tocando All My Friends Are Falling in Love e mande pra gente!

    00:00 / 00:00
    outros vídeos desta música
    repetir qualidade Automático
    Outros vídeos desta música
    00:00 / 00:00
    Automático

    Cifra Club Pro

    Aproveite o Cifra Club com benefícios exclusivos e sem anúncios
    7 dias grátis
    Cifra Club Pro
    Aproveite o Cifra Club com benefícios exclusivos e sem anúncios
    7 dias grátis
    OK